  0
SECTION
  2
HEADER
  9
$ACADVER
  1
AC1015
  9
$ACADMAINTVER
 70
     6
  9
$DWGCODEPAGE
  3
ANSI_1254
  9
$INSBASE
 10
0.0
 20
0.0
 30
0.0
  9
$EXTMIN
 10
0.0
 20
0.0
 30
0.0
  9
$EXTMAX
 10
279.4
 20
215.9
 30
0.0
  9
$LIMMIN
 10
0.0
 20
0.0
  9
$LIMMAX
 10
279.4
 20
215.9
  9
$ORTHOMODE
 70
     0
  9
$REGENMODE
 70
     1
  9
$FILLMODE
 70
     1
  9
$QTEXTMODE
 70
     0
  9
$MIRRTEXT
 70
     1
  9
$LTSCALE
 40
1.0
  9
$ATTMODE
 70
     1
  9
$TEXTSIZE
 40
3.5
  9
$TRACEWID
 40
1.0
  9
$TEXTSTYLE
  7
Standard
  9
$CLAYER
  8
0
  9
$CELTYPE
  6
ByLayer
  9
$CECOLOR
 62
   256
  9
$CELTSCALE
 40
1.0
  9
$DISPSILH
 70
     0
  9
$DIMSCALE
 40
1.0
  9
$DIMASZ
 40
3.5
  9
$DIMEXO
 40
1.0
  9
$DIMDLI
 40
3.75
  9
$DIMRND
 40
0.0
  9
$DIMDLE
 40
0.0
  9
$DIMEXE
 40
1.0
  9
$DIMTP
 40
0.0
  9
$DIMTM
 40
0.0
  9
$DIMTXT
 40
3.5
  9
$DIMCEN
 40
2.5
  9
$DIMTSZ
 40
0.0
  9
$DIMTOL
 70
     0
  9
$DIMLIM
 70
     0
  9
$DIMTIH
 70
     1
  9
$DIMTOH
 70
     1
  9
$DIMSE1
 70
     0
  9
$DIMSE2
 70
     0
  9
$DIMTAD
 70
     1
  9
$DIMZIN
 70
     0
  9
$DIMBLK
  1

  9
$DIMASO
 70
     1
  9
$DIMSHO
 70
     1
  9
$DIMPOST
  1

  9
$DIMAPOST
  1

  9
$DIMALT
 70
     0
  9
$DIMALTD
 70
     3
  9
$DIMALTF
 40
0.0393700787
  9
$DIMLFAC
 40
1.0
  9
$DIMTOFL
 70
     1
  9
$DIMTVP
 40
0.0
  9
$DIMTIX
 70
     0
  9
$DIMSOXD
 70
     0
  9
$DIMSAH
 70
     0
  9
$DIMBLK1
  1

  9
$DIMBLK2
  1

  9
$DIMSTYLE
  2
ISO-25
  9
$DIMCLRD
 70
     0
  9
$DIMCLRE
 70
     0
  9
$DIMCLRT
 70
     0
  9
$DIMTFAC
 40
1.0
  9
$DIMGAP
 40
1.524
  9
$DIMJUST
 70
     0
  9
$DIMSD1
 70
     0
  9
$DIMSD2
 70
     0
  9
$DIMTOLJ
 70
     0
  9
$DIMTZIN
 70
     0
  9
$DIMALTZ
 70
     0
  9
$DIMALTTZ
 70
     0
  9
$DIMUPT
 70
     0
  9
$DIMDEC
 70
     2
  9
$DIMTDEC
 70
     2
  9
$DIMALTU
 70
     2
  9
$DIMALTTD
 70
     3
  9
$DIMTXSTY
  7
Standard
  9
$DIMAUNIT
 70
     0
  9
$DIMADEC
 70
     2
  9
$DIMALTRND
 40
0.0
  9
$DIMAZIN
 70
     0
  9
$DIMDSEP
 70
    44
  9
$DIMATFIT
 70
     3
  9
$DIMFRAC
 70
     0
  9
$DIMLDRBLK
  1

  9
$DIMLUNIT
 70
     2
  9
$DIMLWD
 70
    -2
  9
$DIMLWE
 70
    -2
  9
$DIMTMOVE
 70
     0
  9
$LUNITS
 70
     2
  9
$LUPREC
 70
     2
  9
$SKETCHINC
 40
1.0
  9
$FILLETRAD
 40
10.0
  9
$AUNITS
 70
     0
  9
$AUPREC
 70
     2
  9
$MENU
  1
.
  9
$ELEVATION
 40
0.0
  9
$PELEVATION
 40
0.0
  9
$THICKNESS
 40
0.0
  9
$LIMCHECK
 70
     0
  9
$CHAMFERA
 40
0.0
  9
$CHAMFERB
 40
0.0
  9
$CHAMFERC
 40
0.0
  9
$CHAMFERD
 40
0.0
  9
$SKPOLY
 70
     0
  9
$TDCREATE
 40
2459741.603180289
  9
$TDUCREATE
 40
2459741.478180289
  9
$TDUPDATE
 40
2459741.603180463
  9
$TDUUPDATE
 40
2459741.478180463
  9
$TDINDWG
 40
0.0000000116
  9
$TDUSRTIMER
 40
0.0000000116
  9
$USRTIMER
 70
     1
  9
$ANGBASE
 50
0.0
  9
$ANGDIR
 70
     0
  9
$PDMODE
 70
     0
  9
$PDSIZE
 40
-1.0
  9
$PLINEWID
 40
0.0
  9
$SPLFRAME
 70
     0
  9
$SPLINETYPE
 70
     6
  9
$SPLINESEGS
 70
     8
  9
$HANDSEED
  5
133
  9
$SURFTAB1
 70
     6
  9
$SURFTAB2
 70
     6
  9
$SURFTYPE
 70
     6
  9
$SURFU
 70
     6
  9
$SURFV
 70
     6
  9
$UCSBASE
  2

  9
$UCSNAME
  2

  9
$UCSORG
 10
0.0
 20
0.0
 30
0.0
  9
$UCSXDIR
 10
1.0
 20
0.0
 30
0.0
  9
$UCSYDIR
 10
0.0
 20
1.0
 30
0.0
  9
$UCSORTHOREF
  2

  9
$UCSORTHOVIEW
 70
     0
  9
$UCSORGTOP
 10
0.0
 20
0.0
 30
0.0
  9
$UCSORGBOTTOM
 10
0.0
 20
0.0
 30
0.0
  9
$UCSORGLEFT
 10
0.0
 20
0.0
 30
0.0
  9
$UCSORGRIGHT
 10
0.0
 20
0.0
 30
0.0
  9
$UCSORGFRONT
 10
0.0
 20
0.0
 30
0.0
  9
$UCSORGBACK
 10
0.0
 20
0.0
 30
0.0
  9
$PUCSBASE
  2

  9
$PUCSNAME
  2

  9
$PUCSORG
 10
0.0
 20
0.0
 30
0.0
  9
$PUCSXDIR
 10
1.0
 20
0.0
 30
0.0
  9
$PUCSYDIR
 10
0.0
 20
1.0
 30
0.0
  9
$PUCSORTHOREF
  2

  9
$PUCSORTHOVIEW
 70
     0
  9
$PUCSORGTOP
 10
0.0
 20
0.0
 30
0.0
  9
$PUCSORGBOTTOM
 10
0.0
 20
0.0
 30
0.0
  9
$PUCSORGLEFT
 10
0.0
 20
0.0
 30
0.0
  9
$PUCSORGRIGHT
 10
0.0
 20
0.0
 30
0.0
  9
$PUCSORGFRONT
 10
0.0
 20
0.0
 30
0.0
  9
$PUCSORGBACK
 10
0.0
 20
0.0
 30
0.0
  9
$USERI1
 70
     0
  9
$USERI2
 70
     0
  9
$USERI3
 70
     0
  9
$USERI4
 70
     0
  9
$USERI5
 70
     0
  9
$USERR1
 40
0.0
  9
$USERR2
 40
0.0
  9
$USERR3
 40
0.0
  9
$USERR4
 40
0.0
  9
$USERR5
 40
0.0
  9
$WORLDVIEW
 70
     1
  9
$SHADEDGE
 70
     3
  9
$SHADEDIF
 70
    70
  9
$TILEMODE
 70
     1
  9
$MAXACTVP
 70
    64
  9
$PINSBASE
 10
0.0
 20
0.0
 30
0.0
  9
$PLIMCHECK
 70
     0
  9
$PEXTMIN
 10
1.0000000000E+20
 20
1.0000000000E+20
 30
1.0000000000E+20
  9
$PEXTMAX
 10
-1.0000000000E+20
 20
-1.0000000000E+20
 30
-1.0000000000E+20
  9
$PLIMMIN
 10
0.0
 20
0.0
  9
$PLIMMAX
 10
420.0
 20
297.0
  9
$UNITMODE
 70
     0
  9
$VISRETAIN
 70
     1
  9
$PLINEGEN
 70
     0
  9
$PSLTSCALE
 70
     1
  9
$TREEDEPTH
 70
  3020
  9
$CMLSTYLE
  2
Standard
  9
$CMLJUST
 70
     0
  9
$CMLSCALE
 40
20.0
  9
$PROXYGRAPHICS
 70
     1
  9
$MEASUREMENT
 70
     1
  9
$CELWEIGHT
370
    -1
  9
$ENDCAPS
280
     0
  9
$JOINSTYLE
280
     0
  9
$LWDISPLAY
290
     1
  9
$INSUNITS
 70
     4
  9
$HYPERLINKBASE
  1

  9
$STYLESHEET
  1

  9
$XEDIT
290
     1
  9
$CEPSNTYPE
380
     0
  9
$PSTYLEMODE
290
     1
  9
$FINGERPRINTGUID
  2
{51658b4e-ac14-4df2-91f3-7746b7d83d15}
  9
$VERSIONGUID
  2
{FAEB1C32-E019-11D5-929B-00C0DF256EC4}
  9
$EXTNAMES
290
     1
  9
$PSVPSCALE
 40
0.0
  9
$OLESTARTUP
290
     0
  0
ENDSEC
  0
SECTION
  2
CLASSES
  0
CLASS
  1
ACDBDICTIONARYWDFLT
  2
AcDbDictionaryWithDefault
  3
ObjectDBX Classes
 90
        0
280
     0
281
     0
  0
CLASS
  1
VISUALSTYLE
  2
AcDbVisualStyle
  3
ObjectDBX Classes
 90
     4095
280
     0
281
     0
  0
CLASS
  1
MATERIAL
  2
AcDbMaterial
  3
ObjectDBX Classes
 90
     1153
280
     0
281
     0
  0
CLASS
  1
SCALE
  2
AcDbScale
  3
ObjectDBX Classes
 90
     1153
280
     0
281
     0
  0
CLASS
  1
TABLESTYLE
  2
AcDbTableStyle
  3
ObjectDBX Classes
 90
     4095
280
     0
281
     0
  0
CLASS
  1
MLEADERSTYLE
  2
AcDbMLeaderStyle
  3
ACDB_MLEADERSTYLE_CLASS
 90
     4095
280
     0
281
     0
  0
CLASS
  1
SUN
  2
AcDbSun
  3
SCENEOE
 90
     1153
280
     0
281
     0
  0
CLASS
  1
ACDBPLACEHOLDER
  2
AcDbPlaceHolder
  3
ObjectDBX Classes
 90
        0
280
     0
281
     0
  0
CLASS
  1
LAYOUT
  2
AcDbLayout
  3
ObjectDBX Classes
 90
        0
280
     0
281
     0
  0
ENDSEC
  0
SECTION
  2
TABLES
  0
TABLE
  2
VPORT
  5
8
330
0
100
AcDbSymbolTable
 70
     1
  0
VPORT
  5
29
330
8
100
AcDbSymbolTableRecord
100
AcDbViewportTableRecord
  2
*Active
 70
     0
 10
0.0
 20
0.0
 11
1.0
 21
1.0
 12
139.7
 22
107.95
 13
0.0
 23
0.0
 14
10.0
 24
10.0
 15
10.0
 25
10.0
 16
0.0
 26
0.0
 36
1.0
 17
0.0
 27
0.0
 37
0.0
 40
215.9
 41
1.2941176471
 42
50.0
 43
0.0
 44
0.0
 50
0.0
 51
0.0
 71
     0
 72
  2000
 73
     1
 74
     3
 75
     0
 76
     0
 77
     0
 78
     0
281
     0
 65
     1
110
0.0
120
0.0
130
0.0
111
1.0
121
0.0
131
0.0
112
0.0
122
1.0
132
0.0
 79
     0
146
0.0
  0
ENDTAB
  0
TABLE
  2
LTYPE
  5
5
330
0
100
AcDbSymbolTable
 70
     6
  0
LTYPE
  5
14
330
5
100
AcDbSymbolTableRecord
100
AcDbLinetypeTableRecord
  2
ByBlock
 70
     0
  3

 72
    65
 73
     0
 40
0.0
  0
LTYPE
  5
15
330
5
100
AcDbSymbolTableRecord
100
AcDbLinetypeTableRecord
  2
ByLayer
 70
     0
  3

 72
    65
 73
     0
 40
0.0
  0
LTYPE
  5
16
330
5
100
AcDbSymbolTableRecord
100
AcDbLinetypeTableRecord
  2
Continuous
 70
     0
  3
Solid line
 72
    65
 73
     0
 40
0.0
  0
LTYPE
  5
6E
330
5
100
AcDbSymbolTableRecord
100
AcDbLinetypeTableRecord
  2
HIDDEN
 70
     0
  3
Hidden __ __ __ __ __ __ __ __ __ __ __ __ __ __
 72
    65
 73
     2
 40
1.905
 49
1.27
 74
     0
 49
-0.635
 74
     0
  0
LTYPE
  5
6F
330
5
100
AcDbSymbolTableRecord
100
AcDbLinetypeTableRecord
  2
PHANTOM
 70
     0
  3
Phantom ______  __  __  ______  __  __  ______
 72
    65
 73
     6
 40
12.7
 49
6.35
 74
     0
 49
-1.27
 74
     0
 49
1.27
 74
     0
 49
-1.27
 74
     0
 49
1.27
 74
     0
 49
-1.27
 74
     0
  0
LTYPE
  5
70
330
5
100
AcDbSymbolTableRecord
100
AcDbLinetypeTableRecord
  2
CENTER
 70
     0
  3
Center ____ _ ____ _ ____ _ ____ _ ____ _ ____
 72
    65
 73
     4
 40
10.16
 49
6.35
 74
     0
 49
-1.27
 74
     0
 49
1.27
 74
     0
 49
-1.27
 74
     0
  0
LTYPE
  5
71
330
5
100
AcDbSymbolTableRecord
100
AcDbLinetypeTableRecord
  2
CENTERX2
 70
     0
  3
Center (2x) ________  __  ________  __  _____
 72
    65
 73
     4
 40
20.32
 49
12.7
 74
     0
 49
-2.54
 74
     0
 49
2.54
 74
     0
 49
-2.54
 74
     0
  0
LTYPE
  5
72
330
5
100
AcDbSymbolTableRecord
100
AcDbLinetypeTableRecord
  2
DOT2
 70
     0
  3
Dot (.5x) ........................................
 72
    65
 73
     2
 40
0.635
 49
0.0
 74
     0
 49
-0.635
 74
     0
  0
ENDTAB
  0
TABLE
  2
LAYER
  5
2
330
0
100
AcDbSymbolTable
 70
    17
  0
LAYER
  5
10
330
2
100
AcDbSymbolTableRecord
100
AcDbLayerTableRecord
  2
0
 70
     0
 62
     7
  6
Continuous
370
    -3
390
F
  0
LAYER
  5
73
330
2
100
AcDbSymbolTableRecord
100
AcDbLayerTableRecord
  2
FORMAT
 70
     0
 62
     7
  6
Continuous
370
    -3
390
F
  0
LAYER
  5
74
330
2
100
AcDbSymbolTableRecord
100
AcDbLayerTableRecord
  2
YARDIMCI_GEOMETRI
 70
     0
 62
    -6
  6
Continuous
290
     0
370
    -3
390
F
  0
LAYER
  5
75
330
2
100
AcDbSymbolTableRecord
100
AcDbLayerTableRecord
  2
SAYFA_CERCEVESI
 70
     0
 62
     7
  6
Continuous
370
    25
390
F
  0
LAYER
  5
76
330
2
100
AcDbSymbolTableRecord
100
AcDbLayerTableRecord
  2
ANTET
 70
     0
 62
     7
  6
Continuous
370
    -3
390
F
  0
LAYER
  5
77
330
2
100
AcDbSymbolTableRecord
100
AcDbLayerTableRecord
  2
OLCU
 70
     0
 62
   150
  6
Continuous
370
    -3
390
F
  0
LAYER
  5
78
330
2
100
AcDbSymbolTableRecord
100
AcDbLayerTableRecord
  2
METIN
 70
     0
 62
    96
  6
Continuous
370
    -3
390
F
  0
LAYER
  5
79
330
2
100
AcDbSymbolTableRecord
100
AcDbLayerTableRecord
  2
BALON
 70
     0
 62
     5
  6
Continuous
370
    -3
390
F
  0
LAYER
  5
7A
330
2
100
AcDbSymbolTableRecord
100
AcDbLayerTableRecord
  2
VURGU
 70
     0
 62
     7
  6
Continuous
370
    -3
390
F
  0
LAYER
  5
7B
330
2
100
AcDbSymbolTableRecord
100
AcDbLayerTableRecord
  2
SILIK
 70
     0
 62
     7
  6
Continuous
370
    -3
390
F
  0
LAYER
  5
7C
330
2
100
AcDbSymbolTableRecord
100
AcDbLayerTableRecord
  2
MODEL
 70
     0
 62
     7
  6
Continuous
370
    -3
390
F
  0
LAYER
  5
7D
330
2
100
AcDbSymbolTableRecord
100
AcDbLayerTableRecord
  2
DETAYLANDıRMA
 70
     0
 62
   190
  6
Continuous
370
    -3
390
F
  0
LAYER
  5
7E
330
2
100
AcDbSymbolTableRecord
100
AcDbLayerTableRecord
  2
TOLERANS
 70
     0
 62
   230
  6
Continuous
370
    -3
390
F
  0
LAYER
  5
7F
330
2
100
AcDbSymbolTableRecord
100
AcDbLayerTableRecord
  2
MERKEZ_CIZGILERI
 70
     0
 62
    30
  6
Continuous
370
    -3
390
F
  0
LAYER
  5
80
330
2
100
AcDbSymbolTableRecord
100
AcDbLayerTableRecord
  2
KESIT-DETAY_CIZGILERI
 70
     0
 62
     7
  6
Continuous
370
    -3
390
F
  0
LAYER
  5
81
330
2
100
AcDbSymbolTableRecord
100
AcDbLayerTableRecord
  2
\U+041E\U+0421\U+0415\U+0412\U+042B\U+0415
 70
     0
 62
     7
  6
Continuous
370
    -3
390
F
  0
LAYER
  5
82
330
2
100
AcDbSymbolTableRecord
100
AcDbLayerTableRecord
  2
\U+0412\U+041E\U+0414\U+042F\U+041D\U+042B\U+0415_\U+0417\U+041D\U+0410\U+041A\U+0418
 70
     0
 62
    11
  6
Continuous
370
    -3
390
F
  0
ENDTAB
  0
TABLE
  2
STYLE
  5
3
330
0
100
AcDbSymbolTable
 70
     1
  0
STYLE
  5
11
330
3
100
AcDbSymbolTableRecord
100
AcDbTextStyleTableRecord
  2
Standard
 70
     0
 40
0.0
 41
1.0
 50
0.0
 71
     0
 42
3.5
  3
txt
  4

  0
ENDTAB
  0
TABLE
  2
VIEW
  5
6
330
0
100
AcDbSymbolTable
 70
     0
  0
ENDTAB
  0
TABLE
  2
UCS
  5
7
330
0
100
AcDbSymbolTable
 70
     0
  0
ENDTAB
  0
TABLE
  2
APPID
  5
9
330
0
100
AcDbSymbolTable
 70
     1
  0
APPID
  5
12
330
9
100
AcDbSymbolTableRecord
100
AcDbRegAppTableRecord
  2
ACAD
 70
     0
  0
ENDTAB
  0
TABLE
  2
DIMSTYLE
  5
A
330
0
100
AcDbSymbolTable
 70
     1
100
AcDbDimStyleTable
  0
DIMSTYLE
105
27
330
A
100
AcDbSymbolTableRecord
100
AcDbDimStyleTableRecord
  2
ISO-25
 70
     0
 41
2.5
 42
0.625
 43
3.75
 44
1.25
 73
     0
 74
     0
 77
     1
 78
     8
140
2.5
141
2.5
143
0.0393700787
147
0.625
171
     3
172
     1
178
     0
271
     2
272
     2
274
     3
278
    44
283
     0
284
     8
340
11
  0
ENDTAB
  0
TABLE
  2
BLOCK_RECORD
  5
1
330
0
100
AcDbSymbolTable
 70
     5
  0
BLOCK_RECORD
  5
1F
330
1
100
AcDbSymbolTableRecord
100
AcDbBlockTableRecord
  2
*Model_Space
340
22
  0
BLOCK_RECORD
  5
1B
330
1
100
AcDbSymbolTableRecord
100
AcDbBlockTableRecord
  2
*Paper_Space
340
1E
  0
BLOCK_RECORD
  5
23
330
1
100
AcDbSymbolTableRecord
100
AcDbBlockTableRecord
  2
*Paper_Space0
340
26
  0
BLOCK_RECORD
  5
AB
330
1
100
AcDbSymbolTableRecord
100
AcDbBlockTableRecord
  2
SW_CENTERMARKSYMBOL_0
340
0
102
{BLKREFS
331
B6
102
}
  0
BLOCK_RECORD
  5
C9
330
1
100
AcDbSymbolTableRecord
100
AcDbBlockTableRecord
  2
SW_CENTERMARKSYMBOL_1
340
0
102
{BLKREFS
331
D4
102
}
  0
BLOCK_RECORD
  5
ED
330
1
100
AcDbSymbolTableRecord
100
AcDbBlockTableRecord
  2
SW_CENTERMARKSYMBOL_2
340
0
102
{BLKREFS
331
F8
102
}
  0
BLOCK_RECORD
  5
10B
330
1
100
AcDbSymbolTableRecord
100
AcDbBlockTableRecord
  2
SW_CENTERMARKSYMBOL_3
340
0
102
{BLKREFS
331
116
102
}
  0
ENDTAB
  0
ENDSEC
  0
SECTION
  2
BLOCKS
  0
BLOCK
  5
20
330
1F
100
AcDbEntity
  8
0
100
AcDbBlockBegin
  2
*Model_Space
 70
     0
 10
0.0
 20
0.0
 30
0.0
  3
*Model_Space
  1

  0
ENDBLK
  5
21
330
1F
100
AcDbEntity
  8
0
100
AcDbBlockEnd
  0
BLOCK
  5
1C
330
1B
100
AcDbEntity
 67
     1
  8
0
100
AcDbBlockBegin
  2
*Paper_Space
 70
     0
 10
0.0
 20
0.0
 30
0.0
  3
*Paper_Space
  1

  0
ENDBLK
  5
1D
330
1B
100
AcDbEntity
 67
     1
  8
0
100
AcDbBlockEnd
  0
BLOCK
  5
24
330
23
100
AcDbEntity
  8
0
100
AcDbBlockBegin
  2
*Paper_Space0
 70
     0
 10
0.0
 20
0.0
 30
0.0
  3
*Paper_Space0
  1

  0
ENDBLK
  5
25
330
23
100
AcDbEntity
  8
0
100
AcDbBlockEnd
  0
BLOCK
  5
AC
330
AB
100
AcDbEntity
  8
0
100
AcDbBlockBegin
  2
SW_CENTERMARKSYMBOL_0
 70
     0
 10
0.0
 20
0.0
 30
0.0
  3
SW_CENTERMARKSYMBOL_0
  1

  0
LINE
  5
AE
330
AB
100
AcDbEntity
  8
FORMAT
 62
     0
100
AcDbLine
 10
0.0
 20
0.0
 30
0.0
 11
0.0
 21
2.5
 31
0.0
  0
LINE
  5
AF
330
AB
100
AcDbEntity
  8
FORMAT
 62
     0
100
AcDbLine
 10
0.0
 20
0.0
 30
0.0
 11
-2.5
 21
0.0
 31
0.0
  0
LINE
  5
B0
330
AB
100
AcDbEntity
  8
FORMAT
 62
     0
100
AcDbLine
 10
0.0
 20
0.0
 30
0.0
 11
0.0
 21
-2.5
 31
0.0
  0
LINE
  5
B1
330
AB
100
AcDbEntity
  8
FORMAT
 62
     0
100
AcDbLine
 10
0.0
 20
0.0
 30
0.0
 11
2.5
 21
0.0
 31
0.0
  0
LINE
  5
B2
330
AB
100
AcDbEntity
  8
FORMAT
 62
     0
100
AcDbLine
 10
0.0
 20
5.0
 30
0.0
 11
0.0
 21
50.0
 31
0.0
  0
LINE
  5
B3
330
AB
100
AcDbEntity
  8
FORMAT
 62
     0
100
AcDbLine
 10
-5.0
 20
0.0
 30
0.0
 11
-50.0
 21
0.0
 31
0.0
  0
LINE
  5
B4
330
AB
100
AcDbEntity
  8
FORMAT
 62
     0
100
AcDbLine
 10
0.0
 20
-5.0
 30
0.0
 11
0.0
 21
-50.0
 31
0.0
  0
LINE
  5
B5
330
AB
100
AcDbEntity
  8
FORMAT
 62
     0
100
AcDbLine
 10
5.0
 20
0.0
 30
0.0
 11
50.0
 21
0.0
 31
0.0
  0
ENDBLK
  5
AD
330
AB
100
AcDbEntity
  8
0
100
AcDbBlockEnd
  0
BLOCK
  5
CA
330
C9
100
AcDbEntity
  8
0
100
AcDbBlockBegin
  2
SW_CENTERMARKSYMBOL_1
 70
     0
 10
0.0
 20
0.0
 30
0.0
  3
SW_CENTERMARKSYMBOL_1
  1

  0
LINE
  5
CC
330
C9
100
AcDbEntity
  8
FORMAT
 62
     0
100
AcDbLine
 10
0.0
 20
0.0
 30
0.0
 11
0.0
 21
2.5
 31
0.0
  0
LINE
  5
CD
330
C9
100
AcDbEntity
  8
FORMAT
 62
     0
100
AcDbLine
 10
0.0
 20
0.0
 30
0.0
 11
-2.5
 21
0.0
 31
0.0
  0
LINE
  5
CE
330
C9
100
AcDbEntity
  8
FORMAT
 62
     0
100
AcDbLine
 10
0.0
 20
0.0
 30
0.0
 11
0.0
 21
-2.5
 31
0.0
  0
LINE
  5
CF
330
C9
100
AcDbEntity
  8
FORMAT
 62
     0
100
AcDbLine
 10
0.0
 20
0.0
 30
0.0
 11
2.5
 21
0.0
 31
0.0
  0
LINE
  5
D0
330
C9
100
AcDbEntity
  8
FORMAT
 62
     0
100
AcDbLine
 10
0.0
 20
5.0
 30
0.0
 11
0.0
 21
49.5
 31
0.0
  0
LINE
  5
D1
330
C9
100
AcDbEntity
  8
FORMAT
 62
     0
100
AcDbLine
 10
-5.0
 20
0.0
 30
0.0
 11
-49.5
 21
0.0
 31
0.0
  0
LINE
  5
D2
330
C9
100
AcDbEntity
  8
FORMAT
 62
     0
100
AcDbLine
 10
0.0
 20
-5.0
 30
0.0
 11
0.0
 21
-49.5
 31
0.0
  0
LINE
  5
D3
330
C9
100
AcDbEntity
  8
FORMAT
 62
     0
100
AcDbLine
 10
5.0
 20
0.0
 30
0.0
 11
49.5
 21
0.0
 31
0.0
  0
ENDBLK
  5
CB
330
C9
100
AcDbEntity
  8
0
100
AcDbBlockEnd
  0
BLOCK
  5
EE
330
ED
100
AcDbEntity
  8
0
100
AcDbBlockBegin
  2
SW_CENTERMARKSYMBOL_2
 70
     0
 10
0.0
 20
0.0
 30
0.0
  3
SW_CENTERMARKSYMBOL_2
  1

  0
LINE
  5
F0
330
ED
100
AcDbEntity
  8
FORMAT
 62
     0
100
AcDbLine
 10
0.0
 20
0.0
 30
0.0
 11
0.0
 21
2.5
 31
0.0
  0
LINE
  5
F1
330
ED
100
AcDbEntity
  8
FORMAT
 62
     0
100
AcDbLine
 10
0.0
 20
0.0
 30
0.0
 11
-2.5
 21
0.0
 31
0.0
  0
LINE
  5
F2
330
ED
100
AcDbEntity
  8
FORMAT
 62
     0
100
AcDbLine
 10
0.0
 20
0.0
 30
0.0
 11
0.0
 21
-2.5
 31
0.0
  0
LINE
  5
F3
330
ED
100
AcDbEntity
  8
FORMAT
 62
     0
100
AcDbLine
 10
0.0
 20
0.0
 30
0.0
 11
2.5
 21
0.0
 31
0.0
  0
LINE
  5
F4
330
ED
100
AcDbEntity
  8
FORMAT
 62
     0
100
AcDbLine
 10
0.0
 20
5.0
 30
0.0
 11
0.0
 21
50.0
 31
0.0
  0
LINE
  5
F5
330
ED
100
AcDbEntity
  8
FORMAT
 62
     0
100
AcDbLine
 10
-5.0
 20
0.0
 30
0.0
 11
-50.0
 21
0.0
 31
0.0
  0
LINE
  5
F6
330
ED
100
AcDbEntity
  8
FORMAT
 62
     0
100
AcDbLine
 10
0.0
 20
-5.0
 30
0.0
 11
0.0
 21
-50.0
 31
0.0
  0
LINE
  5
F7
330
ED
100
AcDbEntity
  8
FORMAT
 62
     0
100
AcDbLine
 10
5.0
 20
0.0
 30
0.0
 11
50.0
 21
0.0
 31
0.0
  0
ENDBLK
  5
EF
330
ED
100
AcDbEntity
  8
0
100
AcDbBlockEnd
  0
BLOCK
  5
10C
330
10B
100
AcDbEntity
  8
0
100
AcDbBlockBegin
  2
SW_CENTERMARKSYMBOL_3
 70
     0
 10
0.0
 20
0.0
 30
0.0
  3
SW_CENTERMARKSYMBOL_3
  1

  0
LINE
  5
10E
330
10B
100
AcDbEntity
  8
FORMAT
 62
     0
100
AcDbLine
 10
0.0
 20
0.0
 30
0.0
 11
0.0
 21
2.5
 31
0.0
  0
LINE
  5
10F
330
10B
100
AcDbEntity
  8
FORMAT
 62
     0
100
AcDbLine
 10
0.0
 20
0.0
 30
0.0
 11
-2.5
 21
0.0
 31
0.0
  0
LINE
  5
110
330
10B
100
AcDbEntity
  8
FORMAT
 62
     0
100
AcDbLine
 10
0.0
 20
0.0
 30
0.0
 11
0.0
 21
-2.5
 31
0.0
  0
LINE
  5
111
330
10B
100
AcDbEntity
  8
FORMAT
 62
     0
100
AcDbLine
 10
0.0
 20
0.0
 30
0.0
 11
2.5
 21
0.0
 31
0.0
  0
LINE
  5
112
330
10B
100
AcDbEntity
  8
FORMAT
 62
     0
100
AcDbLine
 10
0.0
 20
5.0
 30
0.0
 11
0.0
 21
49.5
 31
0.0
  0
LINE
  5
113
330
10B
100
AcDbEntity
  8
FORMAT
 62
     0
100
AcDbLine
 10
-5.0
 20
0.0
 30
0.0
 11
-49.5
 21
0.0
 31
0.0
  0
LINE
  5
114
330
10B
100
AcDbEntity
  8
FORMAT
 62
     0
100
AcDbLine
 10
0.0
 20
-5.0
 30
0.0
 11
0.0
 21
-49.5
 31
0.0
  0
LINE
  5
115
330
10B
100
AcDbEntity
  8
FORMAT
 62
     0
100
AcDbLine
 10
5.0
 20
0.0
 30
0.0
 11
49.5
 21
0.0
 31
0.0
  0
ENDBLK
  5
10D
330
10B
100
AcDbEntity
  8
0
100
AcDbBlockEnd
  0
ENDSEC
  0
SECTION
  2
ENTITIES
  0
LINE
  5
83
330
1F
100
AcDbEntity
  8
0
  6
Continuous
 62
     7
370
    25
100
AcDbLine
 10
156.099311153
 20
204.1196869618
 30
0.0
 11
106.783510613
 21
154.8038864217
 31
0.0
  0
LINE
  5
84
330
1F
100
AcDbEntity
  8
0
  6
Continuous
 62
     7
370
    25
100
AcDbLine
 10
173.2515480445
 20
88.3358489902
 30
0.0
 11
222.5673485845
 21
137.6516495302
 31
0.0
  0
ARC
  5
85
330
1F
100
AcDbEntity
  8
0
  6
Continuous
 62
     7
370
    25
100
AcDbCircle
 10
173.9586548257
 20
87.628742209
 30
0.0
 40
0.999999999999998
100
AcDbArc
 50
135.0
 51
180.0
  0
ARC
  5
86
330
1F
100
AcDbEntity
  8
0
  6
Continuous
 62
     7
370
    25
100
AcDbCircle
 10
173.9586548257
 20
87.628742209
 30
0.0
 40
95.00000000000001
100
AcDbArc
 50
135.0
 51
180.0
  0
LINE
  5
87
330
1F
100
AcDbEntity
  8
0
  6
Continuous
 62
     7
370
    25
100
AcDbLine
 10
78.9586548257
 20
87.628742209
 30
0.0
 11
78.9586548257
 21
17.885668246
 31
0.0
  0
LINE
  5
88
330
1F
100
AcDbEntity
  8
0
  6
Continuous
 62
     7
370
    25
100
AcDbLine
 10
172.9586548257
 20
17.885668246
 30
0.0
 11
172.9586548257
 21
87.628742209
 31
0.0
  0
CIRCLE
  5
89
330
1F
100
AcDbEntity
  8
0
  6
Continuous
 62
     7
370
    25
100
AcDbCircle
 10
125.9586548257
 20
27.885668246
 30
0.0
 40
5.0
  0
CIRCLE
  5
8A
330
1F
100
AcDbEntity
  8
0
  6
Continuous
 62
     7
370
    25
100
AcDbCircle
 10
125.9586548257
 20
27.885668246
 30
0.0
 40
7.0
  0
CIRCLE
  5
8B
330
1F
100
AcDbEntity
  8
0
  6
Continuous
 62
     7
370
    25
100
AcDbCircle
 10
182.2622620569
 20
163.8146004341
 30
0.0
 40
7.0
  0
CIRCLE
  5
8C
330
1F
100
AcDbEntity
  8
0
  6
Continuous
 62
     7
370
    25
100
AcDbCircle
 10
182.2622620569
 20
163.8146004341
 30
0.0
 40
5.000000000000028
  0
LINE
  5
8D
330
1F
100
AcDbEntity
  8
0
  6
Continuous
 62
     7
370
    25
100
AcDbLine
 10
189.3333298688
 20
170.885668246
 30
0.0
 11
222.5673485845
 21
137.6516495302
 31
0.0
  0
LINE
  5
8E
330
1F
100
AcDbEntity
  8
0
  6
Continuous
 62
     7
370
    25
100
AcDbLine
 10
156.099311153
 20
204.1196869618
 30
0.0
 11
189.3333298688
 21
170.885668246
 31
0.0
  0
LINE
  5
8F
330
1F
100
AcDbEntity
  8
0
  6
Continuous
 62
     7
370
    25
100
AcDbLine
 10
125.9586548257
 20
17.885668246
 30
0.0
 11
172.9586548257
 21
17.885668246
 31
0.0
  0
LINE
  5
90
330
1F
100
AcDbEntity
  8
0
  6
Continuous
 62
     7
370
    25
100
AcDbLine
 10
78.9586548257
 20
17.885668246
 30
0.0
 11
125.9586548257
 21
17.885668246
 31
0.0
  0
LINE
  5
91
330
1F
100
AcDbEntity
  8
0
  6
Continuous
 62
     1
370
    25
100
AcDbLine
 10
140.0175293287
 20
121.569867706
 30
0.0
 11
173.2515480445
 21
88.3358489902
 31
0.0
  0
LINE
  5
92
330
1F
100
AcDbEntity
  8
0
  6
Continuous
 62
     1
370
    25
100
AcDbLine
 10
106.783510613
 20
154.8038864217
 30
0.0
 11
140.0175293287
 21
121.569867706
 31
0.0
  0
LINE
  5
93
330
1F
100
AcDbEntity
  8
0
  6
Continuous
 62
     1
370
    25
100
AcDbLine
 10
125.9586548257
 20
87.628742209
 30
0.0
 11
172.9586548257
 21
87.628742209
 31
0.0
  0
LINE
  5
94
330
1F
100
AcDbEntity
  8
0
  6
Continuous
 62
     1
370
    25
100
AcDbLine
 10
78.9586548257
 20
87.628742209
 30
0.0
 11
125.9586548257
 21
87.628742209
 31
0.0
  0
LINE
  5
95
330
1F
100
AcDbEntity
  8
0
  6
Continuous
 62
     7
370
    25
100
AcDbLine
 10
-146.7506053815
 20
156.8146004341
 30
0.0
 11
-146.7506053815
 21
121.569867706
 31
0.0
  0
LINE
  5
96
330
1F
100
AcDbEntity
  8
0
  6
Continuous
 62
     7
370
    25
100
AcDbLine
 10
-146.7506053815
 20
170.885668246
 30
0.0
 11
-146.7506053815
 21
168.7475167657
 31
0.0
  0
LINE
  5
97
330
1F
100
AcDbEntity
  8
0
  6
Continuous
 62
     7
370
    25
100
AcDbLine
 10
-52.7506053815
 20
121.569867706
 30
0.0
 11
-52.7506053815
 21
170.885668246
 31
0.0
  0
LINE
  5
98
330
1F
100
AcDbEntity
  8
0
  6
Continuous
 62
     7
370
    25
100
AcDbLine
 10
-146.7506053815
 20
170.8146004341
 30
0.0
 11
-161.7506053815
 21
170.8146004341
 31
0.0
  0
LINE
  5
99
330
1F
100
AcDbEntity
  8
0
  6
Continuous
 62
     7
370
    25
100
AcDbLine
 10
-161.7506053815
 20
156.8146004341
 30
0.0
 11
-146.4893408192
 21
156.8146004341
 31
0.0
  0
LINE
  5
9A
330
1F
100
AcDbEntity
  8
0
  6
Continuous
 62
     7
370
    25
100
AcDbLine
 10
-146.7506053815
 20
121.569867706
 30
0.0
 11
-146.7506053815
 21
87.628742209
 31
0.0
  0
LINE
  5
9B
330
1F
100
AcDbEntity
  8
0
  6
Continuous
 62
     7
370
    25
100
AcDbLine
 10
-52.7506053815
 20
87.628742209
 30
0.0
 11
-52.7506053815
 21
121.569867706
 31
0.0
  0
LINE
  5
9C
330
1F
100
AcDbEntity
  8
0
  6
Continuous
 62
     7
370
    25
100
AcDbLine
 10
-146.7506053815
 20
20.9089234558
 30
0.0
 11
-146.7506053815
 21
17.885668246
 31
0.0
  0
LINE
  5
9D
330
1F
100
AcDbEntity
  8
0
  6
Continuous
 62
     7
370
    25
100
AcDbLine
 10
-146.7506053815
 20
87.628742209
 30
0.0
 11
-146.7506053815
 21
34.8819775815
 31
0.0
  0
LINE
  5
9E
330
1F
100
AcDbEntity
  8
0
  6
Continuous
 62
     7
370
    25
100
AcDbLine
 10
-52.7506053815
 20
17.885668246
 30
0.0
 11
-52.7506053815
 21
87.628742209
 31
0.0
  0
LINE
  5
9F
330
1F
100
AcDbEntity
  8
0
  6
Continuous
 62
     7
370
    25
100
AcDbLine
 10
-146.7500619912
 20
34.885668246
 30
0.0
 11
-161.7506053815
 21
34.885668246
 31
0.0
  0
LINE
  5
A0
330
1F
100
AcDbEntity
  8
0
  6
Continuous
 62
     7
370
    25
100
AcDbLine
 10
-161.7506053815
 20
20.885668246
 30
0.0
 11
-146.7471518003
 21
20.885668246
 31
0.0
  0
LWPOLYLINE
  5
A1
330
1F
100
AcDbEntity
  8
0
  6
Continuous
 62
     7
370
    25
100
AcDbPolyline
 90
      103
 70
   128
 43
0.0
 10
-146.7506053815
 20
170.885668246
 10
-146.6614618322
 20
168.8397519394
 10
-146.3943693361
 20
166.8015964941
 10
-145.9503410667
 20
164.7789333319
 10
-145.3310613752
 20
162.7794351069
 10
-144.5388794016
 20
160.8106866008
 10
-143.5768001635
 20
158.880155951
 10
-142.448473157
 20
156.9951663216
 10
-141.158178513
 20
155.1628681238
 10
-139.7108107608
 20
153.3902118924
 10
-138.1118602623
 20
151.6839219195
 10
-136.3673923842
 20
150.0504707476
 10
-134.4840244909
 20
148.4960546163
 10
-132.4689008418
 20
147.0265699586
 10
-130.3296654911
 20
145.6475910331
 10
-128.0744332913
 20
144.3643487791
 10
-125.7117591107
 20
143.1817109741
 10
-123.2506053815
 20
142.1041637683
 10
-120.700308103
 20
141.1357946674
 10
-118.0705414263
 20
140.2802770272
 10
-115.3712809571
 20
139.5408561189
 10
-112.6127659149
 20
138.9203368195
 10
-109.8054602922
 20
138.4210729711
 10
-106.9600131608
 20
138.0449584526
 10
-104.0872182763
 20
137.7934199951
 10
-101.1979731337
 20
137.6674117702
 10
-98.3032376294
 20
137.6674117702
 10
-95.4139924867
 20
137.7934199951
 10
-92.5411976022
 20
138.0449584526
 10
-89.6957504708
 20
138.4210729711
 10
-86.8884448481
 20
138.9203368195
 10
-84.129929806
 20
139.5408561189
 10
-81.4306693368
 20
140.2802770272
 10
-78.80090266
 20
141.1357946674
 10
-76.2506053815
 20
142.1041637683
 10
-73.7894516524
 20
143.1817109741
 10
-71.4267774717
 20
144.3643487791
 10
-69.1715452719
 20
145.6475910331
 10
-67.0323099213
 20
147.0265699586
 10
-65.0171862722
 20
148.4960546163
 10
-63.1338183788
 20
150.0504707476
 10
-61.3893505008
 20
151.6839219195
 10
-59.7904000022
 20
153.3902118924
 10
-58.3430322501
 20
155.1628681238
 10
-57.052737606
 20
156.9951663216
 10
-55.9244105995
 20
158.880155951
 10
-54.9623313614
 20
160.8106866008
 10
-54.1701493879
 20
162.7794351069
 10
-53.5508696964
 20
164.7789333319
 10
-53.1068414269
 20
166.8015964941
 10
-52.8397489309
 20
168.8397519394
 10
-52.7506053815
 20
170.885668246
 10
-52.8397489309
 20
172.9315845526
 10
-53.1068414269
 20
174.9697399979
 10
-53.5508696964
 20
176.9924031601
 10
-54.1701493879
 20
178.9919013851
 10
-54.9623313614
 20
180.9606498912
 10
-55.9244105995
 20
182.891180541
 10
-57.052737606
 20
184.7761701704
 10
-58.3430322501
 20
186.6084683682
 10
-59.7904000022
 20
188.3811245997
 10
-61.3893505008
 20
190.0874145725
 10
-63.1338183788
 20
191.7208657445
 10
-65.0171862722
 20
193.2752818757
 10
-67.0323099213
 20
194.7447665334
 10
-69.1715452719
 20
196.123745459
 10
-71.4267774717
 20
197.4069877129
 10
-73.7894516524
 20
198.589625518
 10
-76.2506053815
 20
199.6671727237
 10
-78.80090266
 20
200.6355418246
 10
-81.4306693368
 20
201.4910594648
 10
-84.129929806
 20
202.2304803731
 10
-86.8884448481
 20
202.8509996725
 10
-89.6957504708
 20
203.3502635209
 10
-92.5411976022
 20
203.7263780394
 10
-95.4139924867
 20
203.9779164969
 10
-98.3032376294
 20
204.1039247219
 10
-101.1979731337
 20
204.1039247219
 10
-104.0872182763
 20
203.9779164969
 10
-106.9600131608
 20
203.7263780394
 10
-109.8054602922
 20
203.3502635209
 10
-112.6127659149
 20
202.8509996725
 10
-115.3712809571
 20
202.2304803731
 10
-118.0705414263
 20
201.4910594648
 10
-120.700308103
 20
200.6355418246
 10
-123.2506053815
 20
199.6671727237
 10
-125.7117591107
 20
198.589625518
 10
-128.0744332913
 20
197.4069877129
 10
-130.3296654911
 20
196.123745459
 10
-132.4689008418
 20
194.7447665334
 10
-134.4840244909
 20
193.2752818757
 10
-136.3673923842
 20
191.7208657445
 10
-138.1118602623
 20
190.0874145725
 10
-139.7108107608
 20
188.3811245997
 10
-141.158178513
 20
186.6084683682
 10
-142.448473157
 20
184.7761701704
 10
-143.5768001635
 20
182.891180541
 10
-144.5388794016
 20
180.9606498912
 10
-145.3310613752
 20
178.9919013851
 10
-145.9503410667
 20
176.9924031601
 10
-146.3943693361
 20
174.9697399979
 10
-146.6614618322
 20
172.9315845526
 10
-146.7506053815
 20
170.885668246
  0
LWPOLYLINE
  5
A2
330
1F
100
AcDbEntity
  8
0
  6
Continuous
 62
     7
370
    25
100
AcDbPolyline
 90
       92
 70
   128
 43
0.0
 10
-137.2506053815
 20
170.885668246
 10
-137.1612530928
 20
172.7150722229
 10
-136.8936220311
 20
174.5357582567
 10
-136.4489875801
 20
176.3390499494
 10
-135.8294686257
 20
178.1163537948
 10
-135.0380174576
 20
179.8592001307
 10
-134.0784057012
 20
181.5592835007
 10
-132.9552063435
 20
183.2085022333
 10
-131.6737719409
 20
184.7989970501
 10
-130.240209112
 20
186.323188519
 10
-128.6613494363
 20
187.7738131737
 10
-126.9447168994
 20
189.143958127
 10
-125.098492037
 20
190.4270940142
 10
-123.1314729512
 20
191.6171061084
 10
-121.0530333839
 20
192.7083234603
 10
-118.8730780462
 20
193.695545922
 10
-116.6019954178
 20
194.5740689291
 10
-114.2506082418
 20
195.3397059193
 10
-111.830121949
 20
195.9888082836
 10
-109.3520712587
 20
196.5182827538
 10
-106.828265211
 20
196.9256061428
 10
-104.2707308911
 20
197.2088373692
 10
-101.6916561147
 20
197.3666267072
 10
-99.1033313476
 20
197.3982222188
 10
-96.518091136
 20
197.303473337
 10
-93.9482553269
 20
197.0828315833
 10
-91.4060703582
 20
196.7373484162
 10
-88.9036508989
 20
196.2686702203
 10
-86.4529221174
 20
195.6790304606
 10
-84.0655628524
 20
194.9712390391
 10
-81.752949958
 20
194.1486689043
 10
-79.5261040878
 20
193.2152399775
 10
-77.3956371764
 20
192.1754004725
 10
-75.3717018689
 20
191.0341056981
 10
-73.4639431388
 20
189.7967944438
 10
-71.6814523251
 20
188.469363061
 10
-70.0327238084
 20
187.0581373649
 10
-68.5256145308
 20
185.5698424885
 10
-67.1673065543
 20
184.0115708347
 10
-65.9642728352
 20
182.3907482776
 10
-64.9222463768
 20
180.7150987748
 10
-64.0461929099
 20
178.9926075592
 10
-63.340287228
 20
177.2314830858
 10
-62.8078932934
 20
175.4401179149
 10
-62.4515482055
 20
173.6270487173
 10
-62.2729501109
 20
171.8009155932
 10
-62.2729501109
 20
169.9704208988
 10
-62.4515482055
 20
168.1442877748
 10
-62.8078932934
 20
166.3312185771
 10
-63.340287228
 20
164.5398534062
 10
-64.0461929099
 20
162.7787289329
 10
-64.9222463768
 20
161.0562377172
 10
-65.9642728352
 20
159.3805882144
 10
-67.1673065543
 20
157.7597656573
 10
-68.5256145308
 20
156.2014940035
 10
-70.0327238084
 20
154.7131991271
 10
-71.6814523251
 20
153.301973431
 10
-73.4639431388
 20
151.9745420482
 10
-75.3717018689
 20
150.7372307939
 10
-77.3956371764
 20
149.5959360195
 10
-79.5261040878
 20
148.5560965146
 10
-81.752949958
 20
147.6226675877
 10
-84.0655628524
 20
146.8000974529
 10
-86.4529221174
 20
146.0923060314
 10
-88.9036508989
 20
145.5026662717
 10
-91.4060703582
 20
145.0339880758
 10
-93.9482553269
 20
144.6885049087
 10
-96.518091136
 20
144.467863155
 10
-99.1033313476
 20
144.3731142732
 10
-101.6916561147
 20
144.4047097848
 10
-104.2707308911
 20
144.5624991228
 10
-106.828265211
 20
144.8457303492
 10
-109.3520712587
 20
145.2530537382
 10
-111.830121949
 20
145.7825282084
 10
-114.2506082418
 20
146.4316305727
 10
-116.6019954178
 20
147.1972675629
 10
-118.8730780462
 20
148.07579057
 10
-121.0530333839
 20
149.0630130317
 10
-123.1314729512
 20
150.1542303836
 10
-125.098492037
 20
151.3442424779
 10
-126.9447168994
 20
152.6273783651
 10
-128.6613494363
 20
153.9975233183
 10
-130.240209112
 20
155.448147973
 10
-131.6737719409
 20
156.9723394419
 10
-132.9552063435
 20
158.5628342588
 10
-134.0784057012
 20
160.2120529913
 10
-135.0380174576
 20
161.9121363613
 10
-135.8294686257
 20
163.6549826972
 10
-136.4489875801
 20
165.4322865426
 10
-136.8936220311
 20
167.2355782353
 10
-137.1612530928
 20
169.0562642691
 10
-137.2506053815
 20
170.885668246
  0
SPLINE
  5
A3
330
1F
100
AcDbEntity
  8
0
  6
Continuous
 62
     7
370
    25
100
AcDbSpline
210
0.0
220
0.0
230
1.0
 70
     8
 71
     3
 72
    22
 73
    18
 74
     0
 42
0.00000001
 43
0.00000001
 40
0.0
 40
0.0
 40
0.0
 40
0.0
 40
0.0458415824328515
 40
0.1166545968241846
 40
0.1895347200034561
 40
0.2600688378443856
 40
0.3326887687072009
 40
0.4025417082139436
 40
0.4744239850385515
 40
0.5442611354501865
 40
0.6160863196143139
 40
0.6865907805811873
 40
0.7591193334198387
 40
0.8299405552567809
 40
0.9028442882309216
 40
0.9731414376583594
 40
1.0
 40
1.0
 40
1.0
 40
1.0
 10
-146.4893408192251
 20
156.8380641380774
 30
0.0
 10
-146.4704509130334
 20
156.836653168643
 30
0.0
 10
-146.4223811415749
 20
156.8330626278772
 30
0.0
 10
-146.3489327895057
 20
157.0527588453168
 30
0.0
 10
-146.281407329662
 20
157.4629020225086
 30
0.0
 10
-146.2369567407247
 20
158.0668655076732
 30
0.0
 10
-146.2213982014697
 20
158.8231416542724
 30
0.0
 10
-146.2359161401625
 20
159.7254574090937
 30
0.0
 10
-146.2782421612601
 20
160.7292375831631
 30
0.0
 10
-146.3442677996505
 20
161.8271789007533
 30
0.0
 10
-146.4257389640309
 20
162.9725325719901
 30
0.0
 10
-146.5151197167662
 20
164.1554044286045
 30
0.0
 10
-146.6010051986914
 20
165.3232302613453
 30
0.0
 10
-146.6755500334835
 20
166.4640229647648
 30
0.0
 10
-146.7264810585226
 20
167.5099744206773
 30
0.0
 10
-146.7513677693059
 20
168.2855922164512
 30
0.0
 10
-146.7479991170676
 20
168.647468406493
 30
0.0
 10
-146.7470678578087
 20
168.7475085794608
 30
0.0
  0
LINE
  5
A4
330
1F
100
AcDbEntity
  8
0
  6
Continuous
 62
     7
370
    25
100
AcDbLine
 10
-161.7506053815
 20
170.8146004341
 30
0.0
 11
-161.7506053815
 21
156.8146004341
 31
0.0
  0
LINE
  5
A5
330
1F
100
AcDbEntity
  8
0
  6
Continuous
 62
     7
370
    25
100
AcDbLine
 10
-146.7506053815
 20
17.885668246
 30
0.0
 11
-52.7506053815
 21
17.885668246
 31
0.0
  0
SPLINE
  5
A6
330
1F
100
AcDbEntity
  8
0
  6
Continuous
 62
     7
370
    25
100
AcDbSpline
210
0.0
220
0.0
230
1.0
 70
     8
 71
     3
 72
    27
 73
    23
 74
     0
 42
0.00000001
 43
0.00000001
 40
0.0
 40
0.0
 40
0.0
 40
0.0
 40
0.0351715012246242
 40
0.0874901370476528
 40
0.1413159408466227
 40
0.1938412874033315
 40
0.247861226638735
 40
0.3008851373933146
 40
0.3554433417713213
 40
0.4084899995809472
 40
0.4631038131729884
 40
0.5156472274759712
 40
0.5697301613516847
 40
0.6220331816876363
 40
0.6758318886322786
 40
0.7285278678762804
 40
0.7827271613355662
 40
0.8358390872288763
 40
0.8905012883969728
 40
0.9434068589041562
 40
0.9978762923264987
 40
1.0
 40
1.0
 40
1.0
 40
1.0
 10
-146.7471496355023
 20
20.90892345581041
 30
0.0
 10
-146.7472836802402
 20
20.90798575742381
 30
0.0
 10
-146.7476171204427
 20
20.90565320528653
 30
0.0
 10
-146.7150804672841
 20
21.12585088159182
 30
0.0
 10
-146.658019603911
 20
21.53068654997548
 30
0.0
 10
-146.5804860004834
 20
22.12498694494577
 30
0.0
 10
-146.4933855948464
 20
22.87440245659788
 30
0.0
 10
-146.4045277661023
 20
23.77546955249715
 30
0.0
 10
-146.3254491943255
 20
24.78822743824032
 30
0.0
 10
-146.2641389615969
 20
25.90025493334539
 30
0.0
 10
-146.2288331121193
 20
27.05632076668705
 30
0.0
 10
-146.2228020673186
 20
28.24327068845236
 30
0.0
 10
-146.2464683471921
 20
29.40356678970761
 30
0.0
 10
-146.2973003501534
 20
30.52899727467335
 30
0.0
 10
-146.3687499921678
 20
31.57103546681198
 30
0.0
 10
-146.4542021403472
 20
32.5209510143433
 30
0.0
 10
-146.5431611625187
 20
33.33767496380502
 30
0.0
 10
-146.6266902664875
 20
34.00779919941461
 30
0.0
 10
-146.6949961775967
 20
34.50562042908712
 30
0.0
 10
-146.7372056654992
 20
34.79610523196263
 30
0.0
 10
-146.7550647499482
 20
34.91578839163999
 30
0.0
 10
-146.7502399831511
 20
34.88320047204807
 30
0.0
 10
-146.7500589295098
 20
34.88197758154296
 30
0.0
  0
LINE
  5
A7
330
1F
100
AcDbEntity
  8
0
  6
Continuous
 62
     7
370
    25
100
AcDbLine
 10
-161.7506053815
 20
34.885668246
 30
0.0
 11
-161.7506053815
 21
20.885668246
 31
0.0
  0
LWPOLYLINE
  5
A8
330
1F
100
AcDbEntity
  8
0
  6
Continuous
 62
     1
370
    25
100
AcDbPolyline
 90
       53
 70
   128
 43
0.0
 10
-146.7506053815
 20
121.569867706
 10
-146.6614618322
 20
119.5239513994
 10
-146.3943693361
 20
117.4857959541
 10
-145.9503410667
 20
115.4631327918
 10
-145.3310613752
 20
113.4636345669
 10
-144.5388794016
 20
111.4948860608
 10
-143.5768001635
 20
109.564355411
 10
-142.448473157
 20
107.6793657816
 10
-141.158178513
 20
105.8470675838
 10
-139.7108107608
 20
104.0744113523
 10
-138.1118602623
 20
102.3681213795
 10
-136.3673923842
 20
100.7346702075
 10
-134.4840244909
 20
99.1802540763
 10
-132.4689008418
 20
97.7107694186
 10
-130.3296654911
 20
96.331790493
 10
-128.0744332913
 20
95.048548239
 10
-125.7117591107
 20
93.865910434
 10
-123.2506053815
 20
92.7883632283
 10
-120.700308103
 20
91.8199941274
 10
-118.0705414263
 20
90.9644764871
 10
-115.3712809571
 20
90.2250555789
 10
-112.6127659149
 20
89.6045362795
 10
-109.8054602922
 20
89.1052724311
 10
-106.9600131608
 20
88.7291579125
 10
-104.0872182763
 20
88.4776194551
 10
-101.1979731337
 20
88.3516112301
 10
-98.3032376294
 20
88.3516112301
 10
-95.4139924867
 20
88.4776194551
 10
-92.5411976022
 20
88.7291579125
 10
-89.6957504708
 20
89.1052724311
 10
-86.8884448481
 20
89.6045362795
 10
-84.129929806
 20
90.2250555789
 10
-81.4306693368
 20
90.9644764871
 10
-78.80090266
 20
91.8199941274
 10
-76.2506053815
 20
92.7883632283
 10
-73.7894516524
 20
93.865910434
 10
-71.4267774717
 20
95.048548239
 10
-69.1715452719
 20
96.331790493
 10
-67.0323099213
 20
97.7107694186
 10
-65.0171862722
 20
99.1802540763
 10
-63.1338183788
 20
100.7346702075
 10
-61.3893505008
 20
102.3681213795
 10
-59.7904000022
 20
104.0744113523
 10
-58.3430322501
 20
105.8470675838
 10
-57.052737606
 20
107.6793657816
 10
-55.9244105995
 20
109.564355411
 10
-54.9623313614
 20
111.4948860608
 10
-54.1701493879
 20
113.4636345669
 10
-53.5508696964
 20
115.4631327918
 10
-53.1068414269
 20
117.4857959541
 10
-52.8397489309
 20
119.5239513994
 10
-52.7506053815
 20
121.569867706
 10
-52.7506053815
 20
121.569867706
  0
ARC
  5
A9
330
1F
100
AcDbEntity
  8
0
  6
Continuous
 62
     1
370
    25
100
AcDbCircle
 10
-99.7506053815
 20
96.1735555643
 30
0.0
 40
51.9196503137257
100
AcDbArc
 50
74.5946657441
 51
105.4053342559
  0
LINE
  5
AA
330
1F
100
AcDbEntity
  8
0
  6
Continuous
 62
     1
370
    25
100
AcDbLine
 10
-146.7506053815
 20
87.628742209
 30
0.0
 11
-52.7506053815
 21
87.628742209
 31
0.0
  0
INSERT
  5
B6
330
1F
100
AcDbEntity
  8
FORMAT
 62
     7
100
AcDbBlockReference
  2
SW_CENTERMARKSYMBOL_0
 10
-99.7506053815
 20
109.885668246
 30
0.0
  0
LINE
  5
B7
330
1F
100
AcDbEntity
  8
0
  6
Continuous
 62
     7
370
    25
100
AcDbLine
 10
132.9586548257
 20
361.1675941925
 30
0.0
 11
132.9586548257
 21
376.6884982846
 31
0.0
  0
LINE
  5
B8
330
1F
100
AcDbEntity
  8
0
  6
Continuous
 62
     7
370
    25
100
AcDbLine
 10
118.9586548257
 20
376.6884982846
 30
0.0
 11
118.9586548257
 21
361.1642984391
 31
0.0
  0
LINE
  5
B9
330
1F
100
AcDbEntity
  8
0
  6
Continuous
 62
     7
370
    25
100
AcDbLine
 10
140.0175293287
 20
361.6884982846
 30
0.0
 11
132.9586548257
 21
361.6884982846
 31
0.0
  0
LINE
  5
BA
330
1F
100
AcDbEntity
  8
0
  6
Continuous
 62
     7
370
    25
100
AcDbLine
 10
125.9586548257
 20
267.6884982846
 30
0.0
 11
140.0175293287
 21
267.6884982846
 31
0.0
  0
LINE
  5
BB
330
1F
100
AcDbEntity
  8
0
  6
Continuous
 62
     7
370
    25
100
AcDbLine
 10
177.3274253462
 20
361.6884982846
 30
0.0
 11
140.0175293287
 21
361.6884982846
 31
0.0
  0
LINE
  5
BC
330
1F
100
AcDbEntity
  8
0
  6
Continuous
 62
     7
370
    25
100
AcDbLine
 10
189.3333298688
 20
361.6884982846
 30
0.0
 11
189.2622620569
 21
361.6884982846
 31
0.0
  0
LINE
  5
BD
330
1F
100
AcDbEntity
  8
0
  6
Continuous
 62
     7
370
    25
100
AcDbLine
 10
140.0175293287
 20
267.6884982846
 30
0.0
 11
189.3333298688
 21
267.6884982846
 31
0.0
  0
LINE
  5
BE
330
1F
100
AcDbEntity
  8
0
  6
Continuous
 62
     7
370
    25
100
AcDbLine
 10
189.2622620569
 20
361.4272747208
 30
0.0
 11
189.2622620569
 21
376.6884982846
 31
0.0
  0
LINE
  5
BF
330
1F
100
AcDbEntity
  8
0
  6
Continuous
 62
     7
370
    25
100
AcDbLine
 10
175.2622620569
 20
376.6884982846
 30
0.0
 11
175.2622620569
 21
361.6884982846
 31
0.0
  0
CIRCLE
  5
C0
330
1F
100
AcDbEntity
  8
0
  6
Continuous
 62
     7
370
    25
100
AcDbCircle
 10
125.9586548257
 20
314.6884982846
 30
0.0
 40
37.5
  0
CIRCLE
  5
C1
330
1F
100
AcDbEntity
  8
0
  6
Continuous
 62
     7
370
    25
100
AcDbCircle
 10
125.9586548257
 20
314.6884982846
 30
0.0
 40
47.0
  0
LINE
  5
C2
330
1F
100
AcDbEntity
  8
0
  6
Continuous
 62
     7
370
    25
100
AcDbLine
 10
132.9586548257
 20
376.6884982846
 30
0.0
 11
118.9586548257
 21
376.6884982846
 31
0.0
  0
LWPOLYLINE
  5
C3
330
1F
100
AcDbEntity
  8
0
  6
Continuous
 62
     7
370
    25
100
AcDbPolyline
 90
       53
 70
   128
 43
0.0
 10
189.3333298688
 20
361.6884982846
 10
191.3792461754
 20
361.5993547352
 10
193.4174016207
 20
361.3322622392
 10
195.4400647829
 20
360.8882339697
 10
197.4395630079
 20
360.2689542782
 10
199.408311514
 20
359.4767723047
 10
201.3388421638
 20
358.5146930666
 10
203.2238317932
 20
357.3863660601
 10
205.056129991
 20
356.096071416
 10
206.8287862224
 20
354.6487036639
 10
208.5350761953
 20
353.0497531653
 10
210.1685273672
 20
351.3052852873
 10
211.7229434985
 20
349.421917394
 10
213.1924281562
 20
347.4067937449
 10
214.5714070817
 20
345.2675583942
 10
215.8546493357
 20
343.0123261944
 10
217.0372871407
 20
340.6496520137
 10
218.1148343465
 20
338.1884982846
 10
219.0832034473
 20
335.6382010061
 10
219.9387210876
 20
333.0084343294
 10
220.6781419959
 20
330.3091738601
 10
221.2986612953
 20
327.550658818
 10
221.7979251437
 20
324.7433531953
 10
222.1740396622
 20
321.8979060639
 10
222.4255781197
 20
319.0251111794
 10
222.5515863446
 20
316.1358660367
 10
222.5515863446
 20
313.2411305325
 10
222.4255781197
 20
310.3518853898
 10
222.1740396622
 20
307.4790905053
 10
221.7979251437
 20
304.6336433739
 10
221.2986612953
 20
301.8263377512
 10
220.6781419959
 20
299.0678227091
 10
219.9387210876
 20
296.3685622398
 10
219.0832034473
 20
293.7387955631
 10
218.1148343465
 20
291.1884982846
 10
217.0372871407
 20
288.7273445555
 10
215.8546493357
 20
286.3646703748
 10
214.5714070817
 20
284.109438175
 10
213.1924281562
 20
281.9702028243
 10
211.7229434985
 20
279.9550791752
 10
210.1685273672
 20
278.0717112819
 10
208.5350761953
 20
276.3272434039
 10
206.8287862224
 20
274.7282929053
 10
205.056129991
 20
273.2809251532
 10
203.2238317932
 20
271.9906305091
 10
201.3388421638
 20
270.8623035026
 10
199.408311514
 20
269.9002242645
 10
197.4395630079
 20
269.108042291
 10
195.4400647829
 20
268.4887625995
 10
193.4174016207
 20
268.04473433
 10
191.3792461754
 20
267.777641834
 10
189.3333298688
 20
267.6884982846
 10
189.3333298688
 20
267.6884982846
  0
SPLINE
  5
C4
330
1F
100
AcDbEntity
  8
0
  6
Continuous
 62
     7
370
    25
100
AcDbSpline
210
0.0
220
0.0
230
1.0
 70
     8
 71
     3
 72
    22
 73
    18
 74
     0
 42
0.00000001
 43
0.00000001
 40
0.0
 40
0.0
 40
0.0
 40
0.0
 40
0.0230412650255126
 40
0.0951388046349824
 40
0.1648894331075148
 40
0.2366351046989437
 40
0.3069016003035834
 40
0.3791732088490826
 40
0.4499852734316285
 40
0.522864419076163
 40
0.5933975908491204
 40
0.6660165476671355
 40
0.7358685502424916
 40
0.8077498629163886
 40
0.8775860766084148
 40
0.9494102973876102
 40
1.0
 40
1.0
 40
1.0
 40
1.0
 10
177.3274346616801
 20
361.6853647543231
 30
0.0
 10
177.4128939467297
 20
361.6862328795145
 30
0.0
 10
177.7657606064195
 20
361.6898174219819
 30
0.0
 10
178.5158720048931
 20
361.6662773290416
 30
0.0
 10
179.5544981920089
 20
361.6167691854853
 30
0.0
 10
180.6681656442601
 20
361.5448427763288
 30
0.0
 10
181.8358445295227
 20
361.4595010835927
 30
0.0
 10
183.0112858656822
 20
361.3705479320715
 30
0.0
 10
184.179682993545
 20
361.2868170839727
 30
0.0
 10
185.2858630956947
 20
361.2193024671299
 30
0.0
 10
186.3152880334653
 20
361.1748490866786
 30
0.0
 10
187.2171554940601
 20
361.1592910445099
 30
0.0
 10
187.9836148937998
 20
361.1738097937113
 30
0.0
 10
188.5831021033631
 20
361.2161320498164
 30
0.0
 10
189.0038911604578
 20
361.2821717572834
 30
0.0
 10
189.2365399628215
 20
361.3559476659471
 30
0.0
 10
189.240939403405
 20
361.4064172707455
 30
0.0
 10
189.242757549451
 20
361.4272747208375
 30
0.0
  0
ARC
  5
C5
330
1F
100
AcDbEntity
  8
0
  6
Continuous
 62
     7
370
    25
100
AcDbCircle
 10
215.6675761902
 20
314.6884982846
 30
0.0
 40
52.85099876326709
100
AcDbArc
 50
174.2480126715
 51
185.7519873285
  0
LINE
  5
C6
330
1F
100
AcDbEntity
  8
0
  6
Continuous
 62
     7
370
    25
100
AcDbLine
 10
189.2622620569
 20
376.6884982846
 30
0.0
 11
175.2622620569
 21
376.6884982846
 31
0.0
  0
LWPOLYLINE
  5
C7
330
1F
100
AcDbEntity
  8
0
  6
Continuous
 62
     1
370
    25
100
AcDbPolyline
 90
       53
 70
   128
 43
0.0
 10
140.0175293287
 20
361.6884982846
 10
142.0634456353
 20
361.5993547352
 10
144.1016010806
 20
361.3322622392
 10
146.1242642429
 20
360.8882339697
 10
148.1237624678
 20
360.2689542782
 10
150.0925109739
 20
359.4767723047
 10
152.0230416237
 20
358.5146930666
 10
153.9080312532
 20
357.3863660601
 10
155.7403294509
 20
356.096071416
 10
157.5129856824
 20
354.6487036639
 10
159.2192756552
 20
353.0497531653
 10
160.8527268272
 20
351.3052852873
 10
162.4071429584
 20
349.421917394
 10
163.8766276161
 20
347.4067937449
 10
165.2556065417
 20
345.2675583942
 10
166.5388487957
 20
343.0123261944
 10
167.7214866007
 20
340.6496520137
 10
168.7990338064
 20
338.1884982846
 10
169.7674029073
 20
335.6382010061
 10
170.6229205476
 20
333.0084343294
 10
171.3623414558
 20
330.3091738601
 10
171.9828607552
 20
327.550658818
 10
172.4821246036
 20
324.7433531953
 10
172.8582391222
 20
321.8979060639
 10
173.1097775797
 20
319.0251111794
 10
173.2357858046
 20
316.1358660367
 10
173.2357858046
 20
313.2411305325
 10
173.1097775797
 20
310.3518853898
 10
172.8582391222
 20
307.4790905053
 10
172.4821246036
 20
304.6336433739
 10
171.9828607552
 20
301.8263377512
 10
171.3623414558
 20
299.0678227091
 10
170.6229205476
 20
296.3685622398
 10
169.7674029073
 20
293.7387955631
 10
168.7990338064
 20
291.1884982846
 10
167.7214866007
 20
288.7273445555
 10
166.5388487957
 20
286.3646703748
 10
165.2556065417
 20
284.109438175
 10
163.8766276161
 20
281.9702028243
 10
162.4071429584
 20
279.9550791752
 10
160.8527268272
 20
278.0717112819
 10
159.2192756552
 20
276.3272434039
 10
157.5129856824
 20
274.7282929053
 10
155.7403294509
 20
273.2809251532
 10
153.9080312532
 20
271.9906305091
 10
152.0230416237
 20
270.8623035026
 10
150.0925109739
 20
269.9002242645
 10
148.1237624678
 20
269.108042291
 10
146.1242642429
 20
268.4887625995
 10
144.1016010806
 20
268.04473433
 10
142.0634456353
 20
267.777641834
 10
140.0175293287
 20
267.6884982846
 10
140.0175293287
 20
267.6884982846
  0
LWPOLYLINE
  5
C8
330
1F
100
AcDbEntity
  8
0
  6
Continuous
 62
     1
370
    25
100
AcDbPolyline
 90
       41
 70
   128
 43
0.0
 10
134.1941528379
 20
351.2730110255
 10
132.7868437799
 20
350.7673615287
 10
131.043997444
 20
349.9759103607
 10
129.343914074
 20
349.0162986043
 10
127.6946953415
 20
347.8930992466
 10
126.1042005247
 20
346.611664844
 10
124.5800090557
 20
345.178102015
 10
123.129384401
 20
343.5992423394
 10
121.7592394478
 20
341.8826098025
 10
120.4761035606
 20
340.03638494
 10
119.2860914663
 20
338.0693658543
 10
118.1948741145
 20
335.990926287
 10
117.2076516527
 20
333.8109709492
 10
116.3291286456
 20
331.5398883209
 10
115.5634916555
 20
329.1885011449
 10
114.9143892911
 20
326.768014852
 10
114.3849148209
 20
324.2899641618
 10
113.9775914319
 20
321.7661581141
 10
113.6943602055
 20
319.2086237942
 10
113.5365708675
 20
316.6295490178
 10
113.5049753559
 20
314.0412242506
 10
113.5997242377
 20
311.4559840391
 10
113.8203659914
 20
308.88614823
 10
114.1658491585
 20
306.3439632612
 10
114.6345273545
 20
303.841543802
 10
115.2241671141
 20
301.3908150205
 10
115.9319585356
 20
299.0034557555
 10
116.7545286704
 20
296.6908428611
 10
117.6879575973
 20
294.4639969909
 10
118.7277971023
 20
292.3335300795
 10
119.8690918766
 20
290.309594772
 10
121.106403131
 20
288.4018360419
 10
122.4338345137
 20
286.6193452282
 10
123.8450602098
 20
284.9706167114
 10
125.3333550862
 20
283.4635074338
 10
126.89162674
 20
282.1051994574
 10
128.5124492971
 20
280.9021657383
 10
130.1880988
 20
279.8601392799
 10
131.9105900156
 20
278.9840858129
 10
133.6717144889
 20
278.2781801311
 10
134.1941528379
 20
278.1039855437
  0
INSERT
  5
D4
330
1F
100
AcDbEntity
  8
FORMAT
 62
     7
100
AcDbBlockReference
  2
SW_CENTERMARKSYMBOL_1
 10
125.9586548257
 20
314.6884982846
 30
0.0
  0
LINE
  5
D5
330
1F
100
AcDbEntity
  8
0
  6
Continuous
 62
     7
370
    25
100
AcDbLine
 10
298.7443667778
 20
87.628742209
 30
0.0
 11
298.7443667778
 21
17.885668246
 31
0.0
  0
LINE
  5
D6
330
1F
100
AcDbEntity
  8
0
  6
Continuous
 62
     7
370
    25
100
AcDbLine
 10
392.7443667778
 20
34.8819775815
 30
0.0
 11
392.7443667778
 21
87.628742209
 31
0.0
  0
LINE
  5
D7
330
1F
100
AcDbEntity
  8
0
  6
Continuous
 62
     7
370
    25
100
AcDbLine
 10
392.7443667778
 20
17.885668246
 30
0.0
 11
392.7443667778
 21
20.9089234558
 31
0.0
  0
LINE
  5
D8
330
1F
100
AcDbEntity
  8
0
  6
Continuous
 62
     7
370
    25
100
AcDbLine
 10
392.7443667778
 20
87.628742209
 30
0.0
 11
392.7443667778
 21
121.569867706
 31
0.0
  0
LINE
  5
D9
330
1F
100
AcDbEntity
  8
0
  6
Continuous
 62
     7
370
    25
100
AcDbLine
 10
298.7443667778
 20
121.569867706
 30
0.0
 11
298.7443667778
 21
87.628742209
 31
0.0
  0
LINE
  5
DA
330
1F
100
AcDbEntity
  8
0
  6
Continuous
 62
     7
370
    25
100
AcDbLine
 10
298.7443667778
 20
170.885668246
 30
0.0
 11
298.7443667778
 21
121.569867706
 31
0.0
  0
LINE
  5
DB
330
1F
100
AcDbEntity
  8
0
  6
Continuous
 62
     7
370
    25
100
AcDbLine
 10
392.7443667778
 20
170.8146004341
 30
0.0
 11
392.7443667778
 21
170.885668246
 31
0.0
  0
LINE
  5
DC
330
1F
100
AcDbEntity
  8
0
  6
Continuous
 62
     7
370
    25
100
AcDbLine
 10
392.7443667778
 20
121.569867706
 30
0.0
 11
392.7443667778
 21
158.8797637235
 31
0.0
  0
LINE
  5
DD
330
1F
100
AcDbEntity
  8
0
  6
Continuous
 62
     7
370
    25
100
AcDbLine
 10
392.7409131966
 20
20.885668246
 30
0.0
 11
407.7443667778
 21
20.885668246
 31
0.0
  0
LINE
  5
DE
330
1F
100
AcDbEntity
  8
0
  6
Continuous
 62
     7
370
    25
100
AcDbLine
 10
407.7443667778
 20
34.885668246
 30
0.0
 11
392.7438233875
 21
34.885668246
 31
0.0
  0
LINE
  5
DF
330
1F
100
AcDbEntity
  8
0
  6
Continuous
 62
     7
370
    25
100
AcDbLine
 10
392.7443667778
 20
156.8146004341
 30
0.0
 11
407.7443667778
 21
156.8146004341
 31
0.0
  0
LINE
  5
E0
330
1F
100
AcDbEntity
  8
0
  6
Continuous
 62
     7
370
    25
100
AcDbLine
 10
407.7443667778
 20
170.8146004341
 30
0.0
 11
392.4830863331
 21
170.8146004341
 31
0.0
  0
LINE
  5
E1
330
1F
100
AcDbEntity
  8
0
  6
Continuous
 62
     7
370
    25
100
AcDbLine
 10
298.7443667778
 20
17.885668246
 30
0.0
 11
392.7443667778
 21
17.885668246
 31
0.0
  0
SPLINE
  5
E2
330
1F
100
AcDbEntity
  8
0
  6
Continuous
 62
     7
370
    25
100
AcDbSpline
210
0.0
220
0.0
230
1.0
 70
     8
 71
     3
 72
    17
 73
    13
 74
     0
 42
0.00000001
 43
0.00000001
 40
0.0
 40
0.0
 40
0.0
 40
0.0
 40
0.1050384892849713
 40
0.213144227433905
 40
0.3181767592290962
 40
0.4262153570395741
 40
0.5319799973973888
 40
0.6407815807982193
 40
0.747010708009523
 40
0.8563640701427572
 40
0.9617985216348669
 40
1.0
 40
1.0
 40
1.0
 40
1.0
 10
392.2201669323388
 20
27.88566824600864
 30
0.0
 10
392.2229674440255
 20
27.50014909499539
 30
0.0
 10
392.228650245672
 20
26.71785317506111
 30
0.0
 10
392.2731181603679
 20
25.58287700799029
 30
0.0
 10
392.3391877744007
 20
24.50348604633222
 30
0.0
 10
392.4211464675916
 20
23.52665048341446
 30
0.0
 10
392.510621110647
 20
22.66176630170575
 30
0.0
 10
392.5963585865433
 20
21.9492861174071
 30
0.0
 10
392.6705771018022
 20
21.39451779011069
 30
0.0
 10
392.7209780810277
 20
21.04279297753881
 30
0.0
 10
392.7453649457757
 20
20.87893886836207
 30
0.0
 10
392.7418467364179
 20
20.90262411630763
 30
0.0
 10
392.7409110318292
 20
20.90892345581038
 30
0.0
  0
SPLINE
  5
E3
330
1F
100
AcDbEntity
  8
0
  6
Continuous
 62
     7
370
    25
100
AcDbSpline
210
0.0
220
0.0
230
1.0
 70
     8
 71
     3
 72
    16
 73
    12
 74
     0
 42
0.00000001
 43
0.00000001
 40
0.0
 40
0.0
 40
0.0
 40
0.0
 40
0.1005801323634577
 40
0.2084548214854991
 40
0.3132398374049722
 40
0.4210096353496537
 40
0.5267647162761236
 40
0.635554264255814
 40
0.7418148880691208
 40
0.8511990013993296
 40
1.0
 40
1.0
 40
1.0
 40
1.0
 10
392.7438203258367
 20
34.88197758154292
 30
0.0
 10
392.7415060136351
 20
34.86654741492814
 30
0.0
 10
392.7367095441385
 20
34.83456801152517
 30
0.0
 10
392.6943348538138
 20
34.54497939113531
 30
0.0
 10
392.6299142939801
 20
34.0785714743752
 30
0.0
 10
392.5490268800362
 20
33.43979116870649
 30
0.0
 10
392.4599105857254
 20
32.63832278691603
 30
0.0
 10
392.3732822785139
 20
31.70607736216428
 30
0.0
 10
392.2986983084514
 20
30.65378289306086
 30
0.0
 10
392.2353961502504
 20
29.38127341619296
 30
0.0
 10
392.2257349917259
 20
28.43248676653528
 30
0.0
 10
392.2201669323388
 20
27.88566824600864
 30
0.0
  0
LWPOLYLINE
  5
E4
330
1F
100
AcDbEntity
  8
0
  6
Continuous
 62
     7
370
    25
100
AcDbPolyline
 90
       52
 70
   128
 43
0.0
 10
298.7443667778
 20
170.885668246
 10
298.8335103272
 20
172.9315845526
 10
299.1006028233
 20
174.9697399979
 10
299.5446310927
 20
176.9924031601
 10
300.1639107842
 20
178.9919013851
 10
300.9560927578
 20
180.9606498912
 10
301.9181719958
 20
182.891180541
 10
303.0464990023
 20
184.7761701704
 10
304.3367936464
 20
186.6084683682
 10
305.7841613986
 20
188.3811245997
 10
307.3831118971
 20
190.0874145725
 10
309.1275797751
 20
191.7208657445
 10
311.0109476685
 20
193.2752818757
 10
313.0260713176
 20
194.7447665334
 10
315.1653066683
 20
196.123745459
 10
317.420538868
 20
197.4069877129
 10
319.7832130487
 20
198.589625518
 10
322.2443667779
 20
199.6671727237
 10
324.7946640564
 20
200.6355418246
 10
327.4244307331
 20
201.4910594648
 10
330.1236912023
 20
202.2304803731
 10
332.8822062445
 20
202.8509996725
 10
335.6895118671
 20
203.3502635209
 10
338.5349589986
 20
203.7263780394
 10
341.4077538831
 20
203.9779164969
 10
344.2969990257
 20
204.1039247219
 10
347.19173453
 20
204.1039247219
 10
350.0809796726
 20
203.9779164969
 10
352.9537745571
 20
203.7263780394
 10
355.7992216886
 20
203.3502635209
 10
358.6065273112
 20
202.8509996725
 10
361.3650423534
 20
202.2304803731
 10
364.0643028226
 20
201.4910594648
 10
366.6940694993
 20
200.6355418246
 10
369.2443667779
 20
199.6671727237
 10
371.705520507
 20
198.589625518
 10
374.0681946877
 20
197.4069877129
 10
376.3234268874
 20
196.123745459
 10
378.4626622381
 20
194.7447665334
 10
380.4777858872
 20
193.2752818757
 10
382.3611537806
 20
191.7208657445
 10
384.1056216586
 20
190.0874145725
 10
385.7045721571
 20
188.3811245997
 10
387.1519399093
 20
186.6084683682
 10
388.4422345534
 20
184.7761701704
 10
389.5705615599
 20
182.891180541
 10
390.5326407979
 20
180.9606498912
 10
391.3248227715
 20
178.9919013851
 10
391.944102463
 20
176.9924031601
 10
392.3881307324
 20
174.9697399979
 10
392.6552232285
 20
172.9315845526
 10
392.7443667778
 20
170.885668246
  0
SPLINE
  5
E5
330
1F
100
AcDbEntity
  8
0
  6
Continuous
 62
     7
370
    25
100
AcDbSpline
210
0.0
220
0.0
230
1.0
 70
     8
 71
     3
 72
    12
 73
     8
 74
     0
 42
0.00000001
 43
0.00000001
 40
0.0
 40
0.0
 40
0.0
 40
0.0
 40
0.2116552777850569
 40
0.4294097683745899
 40
0.6410769650067688
 40
0.8589662017052084
 40
1.0
 40
1.0
 40
1.0
 40
1.0
 10
392.483001760057
 20
163.8146004341431
 30
0.0
 10
392.5119702162737
 20
163.4273920114984
 30
0.0
 10
392.5707419048626
 20
162.6418170859846
 30
0.0
 10
392.6489099599686
 20
161.4995200041388
 30
0.0
 10
392.7078944279845
 20
160.4167443496289
 30
0.0
 10
392.7412003887491
 20
159.5289284427922
 30
0.0
 10
392.7412239783637
 20
159.0628811777488
 30
0.0
 10
392.7412332475736
 20
158.8797544080356
 30
0.0
  0
SPLINE
  5
E6
330
1F
100
AcDbEntity
  8
0
  6
Continuous
 62
     7
370
    25
100
AcDbSpline
210
0.0
220
0.0
230
1.0
 70
     8
 71
     3
 72
    16
 73
    12
 74
     0
 42
0.00000001
 43
0.00000001
 40
0.0
 40
0.0
 40
0.0
 40
0.0
 40
0.0997279841951048
 40
0.2088518151002163
 40
0.3149666689762464
 40
0.4242161934554458
 40
0.529328105585687
 40
0.6375204727362485
 40
0.7421394077651091
 40
0.8497506221628662
 40
1.0
 40
1.0
 40
1.0
 40
1.0
 10
392.4830863331439
 20
170.8091775050388
 30
0.0
 10
392.4557137108251
 20
170.7948492976834
 30
0.0
 10
392.3983895615258
 20
170.7648429545545
 30
0.0
 10
392.320616846692
 20
170.4746837634538
 30
0.0
 10
392.2588644711419
 20
170.0014995162402
 30
0.0
 10
392.2230137630868
 20
169.3536933625546
 30
0.0
 10
392.2163897860947
 20
168.545454380543
 30
0.0
 10
392.2394932070762
 20
167.6163184558274
 30
0.0
 10
392.2898550010239
 20
166.5745667580357
 30
0.0
 10
392.3709643750414
 20
165.31022003574
 30
0.0
 10
392.4417541831107
 20
164.3652263220167
 30
0.0
 10
392.483001760057
 20
163.8146004341431
 30
0.0
  0
LINE
  5
E7
330
1F
100
AcDbEntity
  8
0
  6
Continuous
 62
     7
370
    25
100
AcDbLine
 10
407.7443667778
 20
27.885668246
 30
0.0
 11
407.7443667778
 21
34.885668246
 31
0.0
  0
LINE
  5
E8
330
1F
100
AcDbEntity
  8
0
  6
Continuous
 62
     7
370
    25
100
AcDbLine
 10
407.7443667778
 20
20.885668246
 30
0.0
 11
407.7443667778
 21
27.885668246
 31
0.0
  0
LINE
  5
E9
330
1F
100
AcDbEntity
  8
0
  6
Continuous
 62
     7
370
    25
100
AcDbLine
 10
407.7443667778
 20
163.8146004341
 30
0.0
 11
407.7443667778
 21
170.8146004341
 31
0.0
  0
LINE
  5
EA
330
1F
100
AcDbEntity
  8
0
  6
Continuous
 62
     7
370
    25
100
AcDbLine
 10
407.7443667778
 20
156.8146004341
 30
0.0
 11
407.7443667778
 21
163.8146004341
 31
0.0
  0
LINE
  5
EB
330
1F
100
AcDbEntity
  8
0
  6
Continuous
 62
     1
370
    25
100
AcDbLine
 10
298.7443667778
 20
87.628742209
 30
0.0
 11
392.7443667778
 21
87.628742209
 31
0.0
  0
LWPOLYLINE
  5
EC
330
1F
100
AcDbEntity
  8
0
  6
Continuous
 62
     1
370
    25
100
AcDbPolyline
 90
       53
 70
   128
 43
0.0
 10
298.7443667778
 20
121.569867706
 10
298.8335103272
 20
123.6157840126
 10
299.1006028233
 20
125.6539394579
 10
299.5446310927
 20
127.6766026201
 10
300.1639107842
 20
129.6761008451
 10
300.9560927578
 20
131.6448493512
 10
301.9181719958
 20
133.575380001
 10
303.0464990023
 20
135.4603696304
 10
304.3367936464
 20
137.2926678282
 10
305.7841613986
 20
139.0653240596
 10
307.3831118971
 20
140.7716140325
 10
309.1275797751
 20
142.4050652044
 10
311.0109476685
 20
143.9594813357
 10
313.0260713176
 20
145.4289659934
 10
315.1653066683
 20
146.8079449189
 10
317.420538868
 20
148.0911871729
 10
319.7832130487
 20
149.2738249779
 10
322.2443667779
 20
150.3513721837
 10
324.7946640564
 20
151.3197412845
 10
327.4244307331
 20
152.1752589248
 10
330.1236912023
 20
152.914679833
 10
332.8822062445
 20
153.5351991325
 10
335.6895118671
 20
154.0344629809
 10
338.5349589986
 20
154.4105774994
 10
341.4077538831
 20
154.6621159569
 10
344.2969990257
 20
154.7881241818
 10
347.19173453
 20
154.7881241818
 10
350.0809796726
 20
154.6621159569
 10
352.9537745571
 20
154.4105774994
 10
355.7992216886
 20
154.0344629809
 10
358.6065273112
 20
153.5351991325
 10
361.3650423534
 20
152.914679833
 10
364.0643028226
 20
152.1752589248
 10
366.6940694993
 20
151.3197412845
 10
369.2443667779
 20
150.3513721837
 10
371.705520507
 20
149.2738249779
 10
374.0681946877
 20
148.0911871729
 10
376.3234268874
 20
146.8079449189
 10
378.4626622381
 20
145.4289659934
 10
380.4777858872
 20
143.9594813357
 10
382.3611537806
 20
142.4050652044
 10
384.1056216586
 20
140.7716140325
 10
385.7045721571
 20
139.0653240596
 10
387.1519399093
 20
137.2926678282
 10
388.4422345534
 20
135.4603696304
 10
389.5705615599
 20
133.5753800009
 10
390.5326407979
 20
131.6448493512
 10
391.3248227715
 20
129.6761008451
 10
391.944102463
 20
127.6766026201
 10
392.3881307324
 20
125.6539394579
 10
392.6552232285
 20
123.6157840126
 10
392.7443667778
 20
121.569867706
 10
392.7443667778
 20
121.569867706
  0
INSERT
  5
F8
330
1F
100
AcDbEntity
  8
FORMAT
 62
     7
100
AcDbBlockReference
  2
SW_CENTERMARKSYMBOL_2
 10
345.7443667778
 20
109.885668246
 30
0.0
  0
LINE
  5
F9
330
1F
100
AcDbEntity
  8
0
  6
Continuous
 62
     7
370
    25
100
AcDbLine
 10
189.3333298688
 20
-64.4353020038
 30
0.0
 11
140.0175293287
 21
-64.4353020038
 31
0.0
  0
LINE
  5
FA
330
1F
100
AcDbEntity
  8
0
  6
Continuous
 62
     7
370
    25
100
AcDbLine
 10
187.1951783885
 20
-158.4353020038
 30
0.0
 11
189.3333298688
 21
-158.4353020038
 31
0.0
  0
LINE
  5
FB
330
1F
100
AcDbEntity
  8
0
  6
Continuous
 62
     7
370
    25
100
AcDbLine
 10
140.0175293287
 20
-158.4353020038
 30
0.0
 11
175.2622620569
 21
-158.4353020038
 31
0.0
  0
LINE
  5
FC
330
1F
100
AcDbEntity
  8
0
  6
Continuous
 62
     7
370
    25
100
AcDbLine
 10
175.2622620569
 20
-158.173936986
 30
0.0
 11
175.2622620569
 21
-173.4353020038
 31
0.0
  0
LINE
  5
FD
330
1F
100
AcDbEntity
  8
0
  6
Continuous
 62
     7
370
    25
100
AcDbLine
 10
189.2622620569
 20
-173.4353020038
 30
0.0
 11
189.2622620569
 21
-158.4353020038
 31
0.0
  0
LINE
  5
FE
330
1F
100
AcDbEntity
  8
0
  6
Continuous
 62
     7
370
    25
100
AcDbLine
 10
125.9586548257
 20
-158.4353020038
 30
0.0
 11
140.0175293287
 21
-158.4353020038
 31
0.0
  0
LINE
  5
FF
330
1F
100
AcDbEntity
  8
0
  6
Continuous
 62
     7
370
    25
100
AcDbLine
 10
140.0175293287
 20
-64.4353020038
 30
0.0
 11
125.9586548257
 21
-64.4353020038
 31
0.0
  0
LINE
  5
100
330
1F
100
AcDbEntity
  8
0
  6
Continuous
 62
     7
370
    25
100
AcDbLine
 10
118.9586548257
 20
-157.9111021583
 30
0.0
 11
118.9586548257
 21
-173.4353020038
 31
0.0
  0
LINE
  5
101
330
1F
100
AcDbEntity
  8
0
  6
Continuous
 62
     7
370
    25
100
AcDbLine
 10
132.9586548257
 20
-173.4353020038
 30
0.0
 11
132.9586548257
 21
-158.4353020038
 31
0.0
  0
LWPOLYLINE
  5
102
330
1F
100
AcDbEntity
  8
0
  6
Continuous
 62
     7
370
    25
100
AcDbPolyline
 90
      103
 70
   128
 43
0.0
 10
189.3333298688
 20
-158.4353020038
 10
191.3792461754
 20
-158.3461584544
 10
193.4174016207
 20
-158.0790659584
 10
195.4400647829
 20
-157.6350376889
 10
197.4395630079
 20
-157.0157579974
 10
199.408311514
 20
-156.2235760239
 10
201.3388421638
 20
-155.2614967858
 10
203.2238317932
 20
-154.1331697793
 10
205.056129991
 20
-152.8428751352
 10
206.8287862224
 20
-151.3955073831
 10
208.5350761953
 20
-149.7965568845
 10
210.1685273672
 20
-148.0520890065
 10
211.7229434985
 20
-146.1687211132
 10
213.1924281562
 20
-144.1535974641
 10
214.5714070817
 20
-142.0143621134
 10
215.8546493357
 20
-139.7591299136
 10
217.0372871407
 20
-137.3964557329
 10
218.1148343465
 20
-134.9353020038
 10
219.0832034473
 20
-132.3850047253
 10
219.9387210876
 20
-129.7552380485
 10
220.6781419959
 20
-127.0559775793
 10
221.2986612953
 20
-124.2974625372
 10
221.7979251437
 20
-121.4901569145
 10
222.1740396622
 20
-118.6447097831
 10
222.4255781197
 20
-115.7719148986
 10
222.5515863446
 20
-112.8826697559
 10
222.5515863446
 20
-109.9879342517
 10
222.4255781197
 20
-107.098689109
 10
222.1740396622
 20
-104.2258942245
 10
221.7979251437
 20
-101.3804470931
 10
221.2986612953
 20
-98.5731414704
 10
220.6781419959
 20
-95.8146264282
 10
219.9387210876
 20
-93.115365959
 10
219.0832034473
 20
-90.4855992823
 10
218.1148343465
 20
-87.9353020038
 10
217.0372871407
 20
-85.4741482746
 10
215.8546493357
 20
-83.111474094
 10
214.5714070817
 20
-80.8562418942
 10
213.1924281562
 20
-78.7170065435
 10
211.7229434985
 20
-76.7018828944
 10
210.1685273672
 20
-74.8185150011
 10
208.5350761953
 20
-73.0740471231
 10
206.8287862224
 20
-71.4750966245
 10
205.056129991
 20
-70.0277288724
 10
203.2238317932
 20
-68.7374342283
 10
201.3388421638
 20
-67.6091072218
 10
199.408311514
 20
-66.6470279837
 10
197.4395630079
 20
-65.8548460101
 10
195.4400647829
 20
-65.2355663187
 10
193.4174016207
 20
-64.7915380492
 10
191.3792461754
 20
-64.5244455532
 10
189.3333298688
 20
-64.4353020038
 10
187.2874135622
 20
-64.5244455532
 10
185.2492581169
 20
-64.7915380492
 10
183.2265949546
 20
-65.2355663187
 10
181.2270967297
 20
-65.8548460101
 10
179.2583482236
 20
-66.6470279837
 10
177.3278175738
 20
-67.6091072218
 10
175.4428279444
 20
-68.7374342283
 10
173.6105297466
 20
-70.0277288724
 10
171.8378735151
 20
-71.4750966245
 10
170.1315835423
 20
-73.0740471231
 10
168.4981323703
 20
-74.8185150011
 10
166.9437162391
 20
-76.7018828944
 10
165.4742315814
 20
-78.7170065435
 10
164.0952526558
 20
-80.8562418942
 10
162.8120104018
 20
-83.111474094
 10
161.6293725968
 20
-85.4741482747
 10
160.5518253911
 20
-87.9353020038
 10
159.5834562902
 20
-90.4855992823
 10
158.7279386499
 20
-93.115365959
 10
157.9885177417
 20
-95.8146264283
 10
157.3679984423
 20
-98.5731414704
 10
156.8687345939
 20
-101.3804470931
 10
156.4926200753
 20
-104.2258942245
 10
156.2410816179
 20
-107.098689109
 10
156.1150733929
 20
-109.9879342517
 10
156.1150733929
 20
-112.8826697559
 10
156.2410816179
 20
-115.7719148986
 10
156.4926200753
 20
-118.6447097831
 10
156.8687345939
 20
-121.4901569145
 10
157.3679984423
 20
-124.2974625372
 10
157.9885177417
 20
-127.0559775793
 10
158.7279386499
 20
-129.7552380486
 10
159.5834562902
 20
-132.3850047253
 10
160.5518253911
 20
-134.9353020038
 10
161.6293725968
 20
-137.3964557329
 10
162.8120104018
 20
-139.7591299136
 10
164.0952526558
 20
-142.0143621134
 10
165.4742315814
 20
-144.1535974641
 10
166.9437162391
 20
-146.1687211132
 10
168.4981323703
 20
-148.0520890065
 10
170.1315835423
 20
-149.7965568845
 10
171.8378735151
 20
-151.3955073831
 10
173.6105297466
 20
-152.8428751352
 10
175.4428279444
 20
-154.1331697793
 10
177.3278175738
 20
-155.2614967858
 10
179.2583482236
 20
-156.2235760239
 10
181.2270967297
 20
-157.0157579974
 10
183.2265949546
 20
-157.6350376889
 10
185.2492581169
 20
-158.0790659584
 10
187.2874135622
 20
-158.3461584544
 10
189.3333298688
 20
-158.4353020038
  0
LWPOLYLINE
  5
103
330
1F
100
AcDbEntity
  8
0
  6
Continuous
 62
     7
370
    25
100
AcDbPolyline
 90
       92
 70
   128
 43
0.0
 10
189.3333298688
 20
-148.9353020038
 10
187.5039258919
 20
-148.8459497151
 10
185.6832398581
 20
-148.5783186533
 10
183.8799481654
 20
-148.1336842024
 10
182.10264432
 20
-147.5141652479
 10
180.359797984
 20
-146.7227140799
 10
178.6597146141
 20
-145.7631023235
 10
177.0104958815
 20
-144.6399029658
 10
175.4200010647
 20
-143.3584685632
 10
173.8958095957
 20
-141.9249057342
 10
172.4451849411
 20
-140.3460460586
 10
171.0750399878
 20
-138.6294135217
 10
169.7919041006
 20
-136.7831886592
 10
168.6018920063
 20
-134.8161695735
 10
167.5106746545
 20
-132.7377300062
 10
166.5234521927
 20
-130.5577746684
 10
165.6449291857
 20
-128.2866920401
 10
164.8792921955
 20
-125.9353048641
 10
164.2301898312
 20
-123.5148185712
 10
163.700715361
 20
-121.036767881
 10
163.293391972
 20
-118.5129618333
 10
163.0101607456
 20
-115.9554275134
 10
162.8523714075
 20
-113.376352737
 10
162.8207758959
 20
-110.7880279698
 10
162.9155247778
 20
-108.2027877583
 10
163.1361665315
 20
-105.6329519492
 10
163.4816496986
 20
-103.0907669804
 10
163.9503278945
 20
-100.5883475212
 10
164.5399676542
 20
-98.1376187397
 10
165.2477590757
 20
-95.7502594747
 10
166.0703292105
 20
-93.4376465803
 10
167.0037581373
 20
-91.2108007101
 10
168.0435976423
 20
-89.0803337987
 10
169.1848924166
 20
-87.0563984912
 10
170.422203671
 20
-85.1486397611
 10
171.7496350538
 20
-83.3661489474
 10
173.1608607499
 20
-81.7174204306
 10
174.6491556263
 20
-80.210311153
 10
176.20742728
 20
-78.8520031766
 10
177.8282498371
 20
-77.6489694575
 10
179.50389934
 20
-76.6069429991
 10
181.2263905556
 20
-75.7308895321
 10
182.987515029
 20
-75.0249838503
 10
184.7788801999
 20
-74.4925899157
 10
186.5919493975
 20
-74.1362448277
 10
188.4180825216
 20
-73.9576467331
 10
190.248577216
 20
-73.9576467331
 10
192.07471034
 20
-74.1362448277
 10
193.8877795377
 20
-74.4925899157
 10
195.6791447086
 20
-75.0249838503
 10
197.4402691819
 20
-75.7308895321
 10
199.1627603975
 20
-76.6069429991
 10
200.8384099004
 20
-77.6489694575
 10
202.4592324575
 20
-78.8520031766
 10
204.0175041113
 20
-80.210311153
 10
205.5057989877
 20
-81.7174204306
 10
206.9170246838
 20
-83.3661489474
 10
208.2444560666
 20
-85.1486397611
 10
209.4817673209
 20
-87.0563984912
 10
210.6230620952
 20
-89.0803337987
 10
211.6629016002
 20
-91.2108007101
 10
212.5963305271
 20
-93.4376465803
 10
213.4189006619
 20
-95.7502594747
 10
214.1266920834
 20
-98.1376187397
 10
214.716331843
 20
-100.5883475212
 10
215.185010039
 20
-103.0907669804
 10
215.5304932061
 20
-105.6329519492
 10
215.7511349598
 20
-108.2027877583
 10
215.8458838416
 20
-110.7880279698
 10
215.81428833
 20
-113.376352737
 10
215.656498992
 20
-115.9554275134
 10
215.3732677656
 20
-118.5129618333
 10
214.9659443766
 20
-121.036767881
 10
214.4364699064
 20
-123.5148185712
 10
213.787367542
 20
-125.9353048641
 10
213.0217305519
 20
-128.2866920401
 10
212.1432075448
 20
-130.5577746684
 10
211.155985083
 20
-132.7377300062
 10
210.0647677312
 20
-134.8161695735
 10
208.8747556369
 20
-136.7831886592
 10
207.5916197497
 20
-138.6294135217
 10
206.2214747965
 20
-140.3460460586
 10
204.7708501418
 20
-141.9249057342
 10
203.2466586728
 20
-143.3584685632
 10
201.656163856
 20
-144.6399029658
 10
200.0069451235
 20
-145.7631023235
 10
198.3068617535
 20
-146.7227140799
 10
196.5640154176
 20
-147.5141652479
 10
194.7867115722
 20
-148.1336842024
 10
192.9834198795
 20
-148.5783186533
 10
191.1627338457
 20
-148.8459497151
 10
189.3333298688
 20
-148.9353020038
  0
SPLINE
  5
104
330
1F
100
AcDbEntity
  8
0
  6
Continuous
 62
     7
370
    25
100
AcDbSpline
210
0.0
220
0.0
230
1.0
 70
     8
 71
     3
 72
    21
 73
    17
 74
     0
 42
0.00000001
 43
0.00000001
 40
0.0
 40
0.0
 40
0.0
 40
0.0
 40
0.0455176649190411
 40
0.1152860059427434
 40
0.1870646650725188
 40
0.2571006768003751
 40
0.3291294900892416
 40
0.3998317998927937
 40
0.472579427313568
 40
0.543321113978655
 40
0.6161525352803908
 40
0.6862256087576689
 40
0.7583522739412313
 40
0.8280967032149404
 40
0.899835941714662
 40
1.0
 40
1.0
 40
1.0
 40
1.0
 10
187.1951865747904
 20
-158.4317644800794
 30
0.0
 10
187.0190334279757
 20
-158.4319992650721
 30
0.0
 10
186.5728771331257
 20
-158.4325939226432
 30
0.0
 10
185.7030888793969
 20
-158.4006574079015
 30
0.0
 10
184.6457827411
 20
-158.3440636278111
 30
0.0
 10
183.5061893498385
 20
-158.2668144614637
 30
0.0
 10
182.3395048989455
 20
-158.1798338191854
 30
0.0
 10
181.1557910272043
 20
-158.0908981978579
 30
0.0
 10
180.0093504797177
 20
-158.011549203058
 30
0.0
 10
178.9154120141869
 20
-157.9498004828708
 30
0.0
 10
177.9283106170847
 20
-157.9139487850411
 30
0.0
 10
177.0584877073834
 20
-157.9073250676149
 30
0.0
 10
176.344916534636
 20
-157.9304284185303
 30
0.0
 10
175.7967191486415
 20
-157.9807902308568
 30
0.0
 10
175.3623145258102
 20
-158.0618995995366
 30
0.0
 10
175.2990972785534
 20
-158.1326894085212
 30
0.0
 10
175.2622620569068
 20
-158.1739369860008
 30
0.0
  0
LINE
  5
105
330
1F
100
AcDbEntity
  8
0
  6
Continuous
 62
     7
370
    25
100
AcDbLine
 10
175.2622620569
 20
-173.4353020038
 30
0.0
 11
189.2622620569
 21
-173.4353020038
 31
0.0
  0
ARC
  5
106
330
1F
100
AcDbEntity
  8
0
  6
Continuous
 62
     7
370
    25
100
AcDbCircle
 10
125.9586548257
 20
-111.4353020038
 30
0.0
 40
47.0
100
AcDbArc
 50
90.0
 51
270.0
  0
ARC
  5
107
330
1F
100
AcDbEntity
  8
0
  6
Continuous
 62
     7
370
    25
100
AcDbCircle
 10
125.9586548257
 20
-111.4353020038
 30
0.0
 40
37.50000000000001
100
AcDbArc
 50
351.8798336285
 51
8.1201663715
  0
LINE
  5
108
330
1F
100
AcDbEntity
  8
0
  6
Continuous
 62
     7
370
    25
100
AcDbLine
 10
118.9586548257
 20
-173.4353020038
 30
0.0
 11
132.9586548257
 21
-173.4353020038
 31
0.0
  0
LWPOLYLINE
  5
109
330
1F
100
AcDbEntity
  8
0
  6
Continuous
 62
     1
370
    25
100
AcDbPolyline
 90
       52
 70
   128
 43
0.0
 10
140.0175293287
 20
-64.4353020038
 10
137.9716130221
 20
-64.5244455532
 10
135.9334575768
 20
-64.7915380492
 10
133.9107944146
 20
-65.2355663187
 10
131.9112961896
 20
-65.8548460101
 10
129.9425476835
 20
-66.6470279837
 10
128.0120170338
 20
-67.6091072218
 10
126.1270274043
 20
-68.7374342283
 10
124.2947292065
 20
-70.0277288724
 10
122.5220729751
 20
-71.4750966245
 10
120.8157830022
 20
-73.0740471231
 10
119.1823318303
 20
-74.8185150011
 10
117.6279156991
 20
-76.7018828944
 10
116.1584310413
 20
-78.7170065435
 10
114.7794521158
 20
-80.8562418942
 10
113.4962098618
 20
-83.111474094
 10
112.3135720568
 20
-85.4741482747
 10
111.236024851
 20
-87.9353020038
 10
110.2676557502
 20
-90.4855992823
 10
109.4121381099
 20
-93.115365959
 10
108.6727172017
 20
-95.8146264283
 10
108.0521979022
 20
-98.5731414704
 10
107.5529340538
 20
-101.3804470931
 10
107.1768195353
 20
-104.2258942245
 10
106.9252810778
 20
-107.098689109
 10
106.7992728529
 20
-109.9879342517
 10
106.7992728529
 20
-112.8826697559
 10
106.9252810778
 20
-115.7719148986
 10
107.1768195353
 20
-118.6447097831
 10
107.5529340538
 20
-121.4901569145
 10
108.0521979022
 20
-124.2974625372
 10
108.6727172017
 20
-127.0559775793
 10
109.4121381099
 20
-129.7552380486
 10
110.2676557502
 20
-132.3850047253
 10
111.236024851
 20
-134.9353020038
 10
112.3135720568
 20
-137.3964557329
 10
113.4962098618
 20
-139.7591299136
 10
114.7794521158
 20
-142.0143621134
 10
116.1584310413
 20
-144.1535974641
 10
117.6279156991
 20
-146.1687211132
 10
119.1823318303
 20
-148.0520890065
 10
120.8157830022
 20
-149.7965568845
 10
122.5220729751
 20
-151.3955073831
 10
124.2947292065
 20
-152.8428751352
 10
126.1270274043
 20
-154.1331697793
 10
128.0120170338
 20
-155.2614967858
 10
129.9425476835
 20
-156.2235760239
 10
131.9112961896
 20
-157.0157579974
 10
133.9107944146
 20
-157.6350376889
 10
135.9334575768
 20
-158.0790659584
 10
137.9716130221
 20
-158.3461584544
 10
140.0175293287
 20
-158.4353020038
  0
ARC
  5
10A
330
1F
100
AcDbEntity
  8
0
  6
Continuous
 62
     1
370
    25
100
AcDbCircle
 10
114.6212171871
 20
-111.4353020038
 30
0.0
 40
51.91965031372413
100
AcDbArc
 50
344.5946657441
 51
15.4053342559
  0
INSERT
  5
116
330
1F
100
AcDbEntity
  8
FORMAT
 62
     7
100
AcDbBlockReference
  2
SW_CENTERMARKSYMBOL_3
 10
125.9586548257
 20
-111.4353020038
 30
0.0
  0
LINE
  5
117
330
1F
100
AcDbEntity
  8
0
  6
Continuous
 62
     7
370
    25
100
AcDbLine
 10
284.4617873078
 20
-121.620085796
 30
0.0
 11
284.4617873078
 21
-142.5179795463
 31
0.0
  0
LINE
  5
118
330
1F
100
AcDbEntity
  8
0
  6
Continuous
 62
     7
370
    25
100
AcDbLine
 10
284.4617873078
 20
-151.352906274
 30
0.0
 11
284.4617873078
 21
-178.5681520332
 31
0.0
  0
LINE
  5
119
330
1F
100
AcDbEntity
  8
0
  6
Continuous
 62
     7
370
    25
100
AcDbLine
 10
378.4617873078
 20
-178.5681520332
 30
0.0
 11
378.4617873078
 21
-121.620085796
 31
0.0
  0
LINE
  5
11A
330
1F
100
AcDbEntity
  8
0
  6
Continuous
 62
     7
370
    25
100
AcDbLine
 10
335.5712558383
 20
-4.2676083683
 30
0.0
 11
334.0701532211
 21
-6.8675943609
 31
0.0
  0
LINE
  5
11B
330
1F
100
AcDbEntity
  8
0
  6
Continuous
 62
     7
370
    25
100
AcDbLine
 10
327.070153198
 20
-18.9919500184
 30
0.0
 11
300.6997188568
 21
-64.666881981
 31
0.0
  0
LINE
  5
11C
330
1F
100
AcDbEntity
  8
0
  6
Continuous
 62
     7
370
    25
100
AcDbLine
 10
382.1061067528
 20
-111.6668820845
 30
0.0
 11
416.9776437343
 21
-51.2676084718
 31
0.0
  0
LINE
  5
11D
330
1F
100
AcDbEntity
  8
0
  6
Continuous
 62
     7
370
    25
100
AcDbLine
 10
301.9123419543
 20
-145.2615273851
 30
0.0
 11
291.1208824385
 21
-139.0317504112
 31
0.0
  0
LINE
  5
11E
330
1F
100
AcDbEntity
  8
0
  6
Continuous
 62
     7
370
    25
100
AcDbLine
 10
284.12145131
 20
-151.1564344845
 30
0.0
 11
294.9127525834
 21
-157.386120107
 31
0.0
  0
SPLINE
  5
11F
330
1F
100
AcDbEntity
  8
0
  6
Continuous
 62
     7
370
    25
100
AcDbSpline
210
0.0
220
0.0
230
1.0
 70
     8
 71
     3
 72
    22
 73
    18
 74
     0
 42
0.00000001
 43
0.00000001
 40
0.0
 40
0.0
 40
0.0
 40
0.0
 40
0.0078262775012805
 40
0.0884113441778523
 40
0.1659758354288834
 40
0.2416562088240655
 40
0.3160757955973212
 40
0.3897842015786231
 40
0.4632419892811648
 40
0.5368136050338742
 40
0.6107160355639113
 40
0.6851001079345194
 40
0.7600690543185272
 40
0.8356408141563056
 40
0.9117616410670213
 40
0.984611492201475
 40
1.0
 40
1.0
 40
1.0
 40
1.0
 10
378.4616845427295
 20
-121.6355412065445
 30
0.0
 10
378.4616750340728
 20
-121.6366654668172
 30
0.0
 10
378.4615676173451
 20
-121.6493659316167
 30
0.0
 10
378.4635122285938
 20
-121.5702057584307
 30
0.0
 10
378.4830530277686
 20
-121.3401080693957
 30
0.0
 10
378.5306950505969
 20
-120.9622879654658
 30
0.0
 10
378.6161725123262
 20
-120.4546897522397
 30
0.0
 10
378.7481303735333
 20
-119.823174165697
 30
0.0
 10
378.9339279874468
 20
-119.0781198192991
 30
0.0
 10
379.1794800649457
 20
-118.2305949961041
 30
0.0
 10
379.4889900283362
 20
-117.2937385476175
 30
0.0
 10
379.8647325627258
 20
-116.28234763475
 30
0.0
 10
380.3069969394836
 20
-115.2126300597303
 30
0.0
 10
380.8137957118153
 20
-114.1019528545261
 30
0.0
 10
381.3718789516042
 20
-112.9876679629273
 30
0.0
 10
381.8149799417775
 20
-112.1737958880044
 30
0.0
 10
382.0628746514726
 20
-111.7421583836144
 30
0.0
 10
382.1061067527887
 20
-111.6668820844769
 30
0.0
  0
SPLINE
  5
120
330
1F
100
AcDbEntity
  8
0
  6
Continuous
 62
     7
370
    25
100
AcDbSpline
210
0.0
220
0.0
230
1.0
 70
     8
 71
     3
 72
    23
 73
    19
 74
     0
 42
0.00000001
 43
0.00000001
 40
0.0
 40
0.0
 40
0.0
 40
0.0
 40
0.0372042688360683
 40
0.1013138784108835
 40
0.1655034449575351
 40
0.2298143580741843
 40
0.2942904640694035
 40
0.358972818702611
 40
0.423897845700922
 40
0.4890950599225102
 40
0.5545842704621239
 40
0.6203722531269187
 40
0.6864490160555548
 40
0.7527839932603089
 40
0.8193227801795482
 40
0.8859765852955346
 40
0.9526092615981445
 40
1.0
 40
1.0
 40
1.0
 40
1.0
 10
300.699718856781
 20
-64.66688198102219
 30
0.0
 10
300.3232121002644
 20
-65.3269956223578
 30
0.0
 10
299.2979168601217
 20
-67.12460313590223
 30
0.0
 10
297.7080281002238
 20
-70.10753346962143
 30
0.0
 10
295.9602815174005
 20
-73.62624456829847
 30
0.0
 10
294.3222208534284
 20
-77.19758476671495
 30
0.0
 10
292.7947411040357
 20
-80.81749883042433
 30
0.0
 10
291.3814038423923
 20
-84.48340487783065
 30
0.0
 10
290.0855023171916
 20
-88.19222241222516
 30
0.0
 10
288.9108949113637
 20
-91.94071945402246
 30
0.0
 10
287.8617894670486
 20
-95.72521471030282
 30
0.0
 10
286.9428116090356
 20
-99.5414083561247
 30
0.0
 10
286.1588326773269
 20
-103.3841555465958
 30
0.0
 10
285.5152432846061
 20
-107.2471997479829
 30
0.0
 10
285.0163831012871
 20
-111.1229400513923
 30
0.0
 10
284.6706141776121
 20
-115.0013555774604
 30
0.0
 10
284.4891838213896
 20
-118.50255730079
 30
0.0
 10
284.4698308466542
 20
-120.7047882553013
 30
0.0
 10
284.4617873078305
 20
-121.6200857960408
 30
0.0
  0
LINE
  5
121
330
1F
100
AcDbEntity
  8
0
  6
Continuous
 62
     7
370
    25
100
AcDbLine
 10
341.5426448458
 20
-11.1813719545
 30
0.0
 11
330.9335449169
 21
-5.0568689293
 31
0.0
  0
LINE
  5
122
330
1F
100
AcDbEntity
  8
0
  6
Continuous
 62
     7
370
    25
100
AcDbLine
 10
323.9341137885
 20
-17.1815530026
 30
0.0
 11
334.5431224164
 21
-23.3060033209
 31
0.0
  0
LWPOLYLINE
  5
123
330
1F
100
AcDbEntity
  8
0
  6
Continuous
 62
     7
370
    25
100
AcDbPolyline
 90
      103
 70
   128
 43
0.0
 10
298.2277685921
 20
-159.3825614054
 10
300.3367189069
 20
-158.23786782
 10
302.5637372674
 20
-157.1702939663
 10
304.90037583
 20
-156.1838895176
 10
307.3377709243
 20
-155.2823962438
 10
309.8666766758
 20
-154.4692338177
 10
312.4775000789
 20
-153.7474868428
 10
315.160337386
 20
-153.1198931528
 10
317.9050116763
 20
-152.5888334254
 10
320.7011114602
 20
-152.156322152
 10
323.5380301733
 20
-151.8239999962
 10
326.4050064114
 20
-151.5931275695
 10
329.2911647515
 20
-151.4645806503
 10
332.1855570064
 20
-151.4388468611
 10
335.077203755
 20
-151.5160238188
 10
337.9551359906
 20
-151.6958187649
 10
340.8084367305
 20
-151.9775496756
 10
343.6262824276
 20
-152.360147849
 10
346.3979840282
 20
-152.8421619591
 10
349.1130275185
 20
-153.4217635615
 10
351.7611138087
 20
-154.0967540286
 10
354.3321978005
 20
-154.8645728904
 10
356.8165264915
 20
-155.722307547
 10
359.2046759722
 20
-156.6667043171
 10
361.4875871735
 20
-157.6941807801
 10
363.6566002313
 20
-158.800839366
 10
365.7034873361
 20
-159.9824821396
 10
367.620483944
 20
-161.2346267252
 10
369.4003182303
 20
-162.5525233095
 10
371.0362386739
 20
-163.9311726593
 10
372.5220396682
 20
-165.3653450854
 10
373.8520850611
 20
-166.8496002806
 10
375.0213295348
 20
-168.3783079565
 10
376.0253377446
 20
-169.9456692013
 10
376.8603011434
 20
-171.5457384768
 10
377.5230524291
 20
-173.1724461723
 10
378.011077559
 20
-174.8196216284
 10
378.3225252866
 20
-176.4810165442
 10
378.456214184
 20
-178.1503286798
 10
378.4116371235
 20
-179.8212257626
 10
378.1889632012
 20
-181.4873695074
 10
377.7890370953
 20
-183.1424396605
 10
377.2133758628
 20
-184.7801579738
 10
376.4641631837
 20
-186.3943120208
 10
375.5442410785
 20
-187.9787787623
 10
374.4570991268
 20
-189.5275477732
 10
373.2068612303
 20
-191.0347440422
 10
371.7982699696
 20
-192.4946502576
 10
370.236668614
 20
-193.901728495
 10
368.5279808521
 20
-195.2506412248
 10
366.678688322
 20
-196.5362715589
 10
364.6958060236
 20
-197.753742661
 10
362.5868557087
 20
-198.8984362464
 10
360.3598373483
 20
-199.9660101001
 10
358.0231987857
 20
-200.9524145488
 10
355.5858036914
 20
-201.8539078226
 10
353.0568979399
 20
-202.6670702487
 10
350.4460745368
 20
-203.3888172236
 10
347.7632372297
 20
-204.0164109136
 10
345.0185629393
 20
-204.547470641
 10
342.2224631555
 20
-204.9799819144
 10
339.3855444423
 20
-205.3123040702
 10
336.5185682043
 20
-205.5431764969
 10
333.6324098642
 20
-205.6717234161
 10
330.7380176092
 20
-205.6974572053
 10
327.8463708607
 20
-205.6202802476
 10
324.9684386251
 20
-205.4404853015
 10
322.1151378852
 20
-205.1587543908
 10
319.297292188
 20
-204.7761562174
 10
316.5255905875
 20
-204.2941421073
 10
313.8105470971
 20
-203.7145405049
 10
311.1624608069
 20
-203.0395500378
 10
308.5913768152
 20
-202.271731176
 10
306.1070481241
 20
-201.4139965194
 10
303.7188986435
 20
-200.4695997493
 10
301.4359874422
 20
-199.4421232863
 10
299.2669743844
 20
-198.3354647004
 10
297.2200872796
 20
-197.1538219268
 10
295.3030906716
 20
-195.9016773412
 10
293.5232563853
 20
-194.5837807569
 10
291.8873359417
 20
-193.2051314071
 10
290.4015349475
 20
-191.770958981
 10
289.0714895546
 20
-190.2867037858
 10
287.9022450808
 20
-188.7579961099
 10
286.8982368711
 20
-187.1906348652
 10
286.0632734722
 20
-185.5905655896
 10
285.4005221866
 20
-183.9638578941
 10
284.9124970567
 20
-182.316682438
 10
284.6010493291
 20
-180.6552875222
 10
284.4673604316
 20
-178.9859753866
 10
284.5119374921
 20
-177.3150783038
 10
284.7346114145
 20
-175.648934559
 10
285.1345375203
 20
-173.9938644059
 10
285.7101987529
 20
-172.3561460926
 10
286.4594114319
 20
-170.7419920456
 10
287.3793335371
 20
-169.1575253041
 10
288.4664754889
 20
-167.6087562932
 10
289.7167133854
 20
-166.1015600242
 10
291.125304646
 20
-164.6416538088
 10
292.6869060017
 20
-163.2345755714
 10
294.3955937636
 20
-161.8856628416
 10
296.2448862937
 20
-160.6000325075
 10
298.2277685921
 20
-159.3825614054
  0
LINE
  5
124
330
1F
100
AcDbEntity
  8
0
  6
Continuous
 62
     7
370
    25
100
AcDbLine
 10
378.4617873078
 20
-121.620085796
 30
0.0
 11
378.4616310405
 21
-121.690052259
 31
0.0
  0
SPLINE
  5
125
330
1F
100
AcDbEntity
  8
0
  6
Continuous
 62
     7
370
    25
100
AcDbSpline
210
0.0
220
0.0
230
1.0
 70
     8
 71
     3
 72
    27
 73
    23
 74
     0
 42
0.00000001
 43
0.00000001
 40
0.0
 40
0.0
 40
0.0
 40
0.0
 40
0.0167184566319685
 40
0.0703628376787463
 40
0.1242627602894237
 40
0.1781599240989153
 40
0.2316569439460142
 40
0.285153349954182
 40
0.3382248778913799
 40
0.391298734933077
 40
0.4445711707271118
 40
0.4978453073863819
 40
0.5516377571713474
 40
0.6054285663858404
 40
0.6592604385390516
 40
0.7130897305921082
 40
0.7664029535252213
 40
0.8197167447242752
 40
0.8727668288215726
 40
0.925819566731118
 40
0.9792675261441469
 40
1.0
 40
1.0
 40
1.0
 40
1.0
 10
294.9239463774799
 20
-157.3675096418655
 30
0.0
 10
294.9756476189821
 20
-157.4041950094609
 30
0.0
 10
295.193242229758
 20
-157.5585924291586
 30
0.0
 10
295.6763507638937
 20
-157.658228045329
 30
0.0
 10
296.3642133264689
 20
-157.6540439093824
 30
0.0
 10
297.1274001072667
 20
-157.4667845877578
 30
0.0
 10
297.9394757929836
 20
-157.1135294567513
 30
0.0
 10
298.7760607668142
 20
-156.6099789454758
 30
0.0
 10
299.6153579299176
 20
-155.9663947566126
 30
0.0
 10
300.4326835902555
 20
-155.2051208398881
 30
0.0
 10
301.2032174310058
 20
-154.3393629905692
 30
0.0
 10
301.9054631301885
 20
-153.3906297412238
 30
0.0
 10
302.5099887788934
 20
-152.3795439342394
 30
0.0
 10
302.9980386583205
 20
-151.3322045758659
 30
0.0
 10
303.3430629291899
 20
-150.2774185731938
 30
0.0
 10
303.5369421830833
 20
-149.2465947559064
 30
0.0
 10
303.566102266331
 20
-148.269170238551
 30
0.0
 10
303.4382784154294
 20
-147.3725652323439
 30
0.0
 10
303.1545966185474
 20
-146.57912800306
 30
0.0
 10
302.7252379807243
 20
-145.919449058097
 30
0.0
 10
302.297792170375
 20
-145.4806732304785
 30
0.0
 10
301.9874246287204
 20
-145.3255746906388
 30
0.0
 10
301.9006809058881
 20
-145.2822266501838
 30
0.0
  0
LWPOLYLINE
  5
126
330
1F
100
AcDbEntity
  8
0
  6
Continuous
 62
     7
370
    25
100
AcDbPolyline
 90
       92
 70
   128
 43
0.0
 10
304.9452830133
 20
-163.2604999365
 10
303.1790606457
 20
-164.3530663395
 10
301.5476183505
 20
-165.5133740993
 10
300.0587306932
 20
-166.735893821
 10
298.7194929016
 20
-168.0147996415
 10
297.5362870536
 20
-169.3439969922
 10
296.5147516639
 20
-170.7171516423
 10
295.6597548138
 20
-172.1277198845
 10
294.9753709527
 20
-173.5689797189
 10
294.4648614813
 20
-175.034062886
 10
294.1306592098
 20
-176.5159875973
 10
293.9743567643
 20
-178.0076918067
 10
293.9966989969
 20
-179.5020668643
 10
294.1975794368
 20
-180.9919913924
 10
294.5760407973
 20
-182.4703652221
 10
295.1302795376
 20
-183.930143229
 10
295.8576544577
 20
-185.364368906
 10
296.7546992848
 20
-186.7662075146
 10
297.8171391919
 20
-188.1289786554
 10
299.039911169
 20
-189.4461881034
 10
300.4171881507
 20
-190.7115587557
 10
301.942406785
 20
-191.9190605449
 10
303.6082987106
 20
-193.0629391751
 10
305.4069251937
 20
-194.1377435437
 10
307.3297149601
 20
-195.1383517183
 10
309.367505041
 20
-196.0599953455
 10
311.5105844385
 20
-196.8982823735
 10
313.7487404034
 20
-197.6492179829
 10
316.0713071034
 20
-198.3092236236
 10
318.4672164502
 20
-198.8751540682
 10
320.9250508449
 20
-199.3443124002
 10
323.4330975873
 20
-199.7144628668
 10
325.9794046924
 20
-199.9838415322
 10
328.5518378473
 20
-200.1511646845
 10
331.1381382366
 20
-200.2156349527
 10
333.7259809612
 20
-200.1769451066
 10
336.3030337718
 20
-200.0352795209
 10
338.8570158384
 20
-199.7913132966
 10
341.3757562732
 20
-199.4462090439
 10
343.8472521311
 20
-199.0016113418
 10
346.2597256089
 20
-198.4596389007
 10
348.6016801717
 20
-197.8228744662
 10
350.8619553395
 20
-197.0943525107
 10
353.0297798719
 20
-196.2775447731
 10
355.0948230976
 20
-195.3763437143
 10
357.0472441455
 20
-194.3950439678
 10
358.8777388399
 20
-193.3383218737
 10
360.5775840401
 20
-192.2112131939
 10
362.1386792097
 20
-191.0190891148
 10
363.5535850191
 20
-189.7676306503
 10
364.815558798
 20
-188.46280157
 10
365.9185866664
 20
-187.1108199786
 10
366.8574121944
 20
-185.7181286842
 10
367.6275614507
 20
-184.2913644949
 10
368.2253643234
 20
-182.837326592
 10
368.6479720096
 20
-181.362944128
 10
368.8933705912
 20
-179.8752432071
 10
368.9603906322
 20
-178.3813134014
 10
368.8487127516
 20
-176.8882739669
 10
368.5588691453
 20
-175.4032399164
 10
368.0922410502
 20
-173.9332881134
 10
367.4510521616
 20
-172.4854235477
 10
366.6383580365
 20
-171.0665459533
 10
365.6580315325
 20
-169.6834169281
 10
364.514744352
 20
-168.3426277117
 10
363.2139447789
 20
-167.0505677754
 10
361.7618317156
 20
-165.8133943732
 10
360.1653251421
 20
-164.6370031997
 10
358.4320331394
 20
-163.5270002946
 10
356.570215633
 20
-162.4886753273
 10
354.5887450314
 20
-161.526976389
 10
352.4970639443
 20
-160.6464864132
 10
350.3051401845
 20
-159.8514013355
 10
348.0234192672
 20
-159.1455100984
 10
345.6627746314
 20
-158.5321765952
 10
343.2344558239
 20
-158.0143236393
 10
340.7500348896
 20
-157.5944190359
 10
338.2213512259
 20
-157.2744638216
 10
335.6604551617
 20
-157.0559827287
 10
333.0795505332
 20
-156.9400169191
 10
330.4909365261
 20
-156.9271190227
 10
327.9069490652
 20
-157.0173505039
 10
325.3399020274
 20
-157.2102813686
 10
322.8020285608
 20
-157.5049922133
 10
320.3054227883
 20
-157.9000786067
 10
317.8619821733
 20
-158.3936577821
 10
315.483350823
 20
-158.9833776101
 10
313.1808639992
 20
-159.666427807
 10
310.9654941
 20
-160.4395533277
 10
308.8477983719
 20
-161.2990698769
 10
306.8378685995
 20
-162.2408814669
 10
304.9452830133
 20
-163.2604999365
  0
LWPOLYLINE
  5
127
330
1F
100
AcDbEntity
  8
0
  6
Continuous
 62
     7
370
    25
100
AcDbPolyline
 90
      103
 70
   128
 43
0.0
 10
343.0404310705
 20
-8.5820177922
 10
344.5501463729
 20
-9.4538293782
 10
346.1802028246
 20
-10.3951114011
 10
347.924417063
 20
-11.4022932558
 10
349.7761726862
 20
-12.4715543563
 10
351.7284453507
 20
-13.5988386293
 10
353.7738294177
 20
-14.7798698992
 10
355.9045660449
 20
-16.01016811
 10
358.1125726182
 20
-17.2850663191
 10
360.3894734126
 20
-18.5997284009
 10
362.7266313634
 20
-19.9491673919
 10
365.1151808299
 20
-21.3282644077
 10
367.546061226
 20
-22.731788061
 10
370.0100513895
 20
-24.1544143058
 10
372.4978045619
 20
-25.5907466335
 10
374.9998838432
 20
-27.0353365436
 10
377.5067979897
 20
-28.4827042117
 10
380.0090374173
 20
-29.9273592766
 10
382.4971102749
 20
-31.3638216667
 10
384.9615784498
 20
-32.7866423882
 10
387.3930933702
 20
-34.1904241946
 10
389.782431467
 20
-35.5698420609
 10
392.1205291624
 20
-36.9196633825
 10
394.3985172511
 20
-38.2347678247
 10
396.6077545439
 20
-39.5101667461
 10
398.7398606471
 20
-40.7410221217
 10
400.786747752
 20
-41.9226648953
 10
402.7406513145
 20
-43.0506126913
 10
404.5941595093
 20
-44.1205868172
 10
406.3402413448
 20
-45.1285284948
 10
407.9722733347
 20
-46.0706142559
 10
409.4840646225
 20
-46.9432704466
 10
410.8698804661
 20
-47.7431867832
 10
412.1244639913
 20
-48.4673289088
 10
413.2430561331
 20
-49.1129499044
 10
414.2214136883
 20
-49.6776007085
 10
415.0558254116
 20
-50.159139407
 10
415.7431260935
 20
-50.5557393589
 10
416.2807085671
 20
-50.8658961246
 10
416.666533598
 20
-51.0884331732
 10
416.8991376197
 20
-51.2225063456
 10
416.9776382854
 20
-51.2676070562
 10
416.9017378152
 20
-51.2235642227
 10
416.6717241256
 20
-51.0905449145
 10
416.2884697374
 20
-50.8690537194
 10
415.7534284656
 20
-50.5599308296
 10
415.0686299052
 20
-50.1643488538
 10
414.2366717315
 20
-49.6838083701
 10
413.260709847
 20
-49.1201322332
 10
412.1444464093
 20
-48.4754586596
 10
410.892115788
 20
-47.7522331171
 10
409.5084685021
 20
-46.9531990479
 10
407.9987531997
 20
-46.0813874618
 10
406.368696748
 20
-45.1401054389
 10
404.6244825096
 20
-44.1329235843
 10
402.7727268864
 20
-43.0636624837
 10
400.8204542219
 20
-41.9363782108
 10
398.7750701548
 20
-40.7553469409
 10
396.6443335277
 20
-39.5250487301
 10
394.4363269544
 20
-38.250150521
 10
392.15942616
 20
-36.9354884392
 10
389.8222682092
 20
-35.5860494482
 10
387.4337187427
 20
-34.2069524324
 10
385.0028383466
 20
-32.8034287791
 10
382.5388481831
 20
-31.3808025343
 10
380.0510950107
 20
-29.9444702066
 10
377.5490157294
 20
-28.4998802965
 10
375.0421015829
 20
-27.0525126283
 10
372.5398621552
 20
-25.6078575635
 10
370.0517892977
 20
-24.1713951734
 10
367.5873211227
 20
-22.7485744519
 10
365.1558062024
 20
-21.3447926454
 10
362.7664681056
 20
-19.9653747792
 10
360.4283704101
 20
-18.6155534576
 10
358.1503823215
 20
-17.3004490153
 10
355.9411450286
 20
-16.0250500939
 10
353.8090389254
 20
-14.7941947184
 10
351.7621518206
 20
-13.6125519447
 10
349.8082482581
 20
-12.4846041488
 10
347.9547400633
 20
-11.4146300229
 10
346.2086582277
 20
-10.4066883453
 10
344.5766262379
 20
-9.4646025842
 10
343.06483495
 20
-8.5919463934
 10
341.6790191064
 20
-7.7920300569
 10
340.4244355812
 20
-7.0678879313
 10
339.3058434395
 20
-6.4222669356
 10
338.3274858843
 20
-5.8576161316
 10
337.493074161
 20
-5.376077433
 10
336.8057734791
 20
-4.9794774812
 10
336.2681910055
 20
-4.6693207155
 10
335.8823659746
 20
-4.4467836669
 10
335.6497619529
 20
-4.3127104945
 10
335.5712612872
 20
-4.2676097839
 10
335.6471617574
 20
-4.3116526174
 10
335.8771754469
 20
-4.4446719256
 10
336.2604298352
 20
-4.6661631206
 10
336.7954711069
 20
-4.9752860105
 10
337.4802696674
 20
-5.3708679863
 10
338.3122278411
 20
-5.8514084699
 10
339.2881897256
 20
-6.4150846069
 10
340.4044531633
 20
-7.0597581805
 10
341.6567837846
 20
-7.782983723
 10
343.0404310705
 20
-8.5820177922
  0
SPLINE
  5
128
330
1F
100
AcDbEntity
  8
0
  6
Continuous
 62
     7
370
    25
100
AcDbSpline
210
0.0
220
0.0
230
1.0
 70
     8
 71
     3
 72
    27
 73
    23
 74
     0
 42
0.00000001
 43
0.00000001
 40
0.0
 40
0.0
 40
0.0
 40
0.0
 40
0.0179984148813451
 40
0.0713060290396751
 40
0.1243692703186055
 40
0.177435107357467
 40
0.2308901190119206
 40
0.2843457889452344
 40
0.3382346569840888
 40
0.3921210356461629
 40
0.4458071934821954
 40
0.4994915673900106
 40
0.5526440029908798
 40
0.6057981148071891
 40
0.6589230727497406
 40
0.7120504277691294
 40
0.76569090223015
 40
0.8193308204471844
 40
0.8732316739055271
 40
0.9271297689888796
 40
0.9806323294110197
 40
1.0
 40
1.0
 40
1.0
 40
1.0
 10
334.5546550297616
 20
-23.28671612776401
 30
0.0
 10
334.6170637207551
 20
-23.32958887596731
 30
0.0
 10
334.8643141570652
 20
-23.49944191294567
 30
0.0
 10
335.413594883037
 20
-23.63430622849952
 30
0.0
 10
336.1809345951322
 20
-23.67695665086988
 30
0.0
 10
337.0227096022331
 20
-23.54272170333141
 30
0.0
 10
337.9052245758847
 20
-23.23903918936163
 30
0.0
 10
338.8033904354559
 20
-22.77184632153254
 30
0.0
 10
339.684127136245
 20
-22.14465603028232
 30
0.0
 10
340.5181791074882
 20
-21.37733347904844
 30
0.0
 10
341.2722371521499
 20
-20.48555760215989
 30
0.0
 10
341.9243544068578
 20
-19.50188305619491
 30
0.0
 10
342.4513746236203
 20
-18.4501608925616
 30
0.0
 10
342.846697411383
 20
-17.36449593517722
 30
0.0
 10
343.0976130447994
 20
-16.27221815424715
 30
0.0
 10
343.2081428552956
 20
-15.2023691426601
 30
0.0
 10
343.1729128575104
 20
-14.18839277693543
 30
0.0
 10
343.0015578736372
 20
-13.2587648529997
 30
0.0
 10
342.699626435542
 20
-12.44640346649559
 30
0.0
 10
342.2781653528036
 20
-11.78944475674867
 30
0.0
 10
341.8806996393995
 20
-11.37075445876109
 30
0.0
 10
341.604614962273
 20
-11.23723133875593
 30
0.0
 10
341.5312363410301
 20
-11.20174315972328
 30
0.0
  0
LWPOLYLINE
  5
129
330
1F
100
AcDbEntity
  8
0
  6
Continuous
 62
     7
370
    25
100
AcDbPolyline
 90
       40
 70
   128
 43
0.0
 10
282.671419406
 20
-147.9515208392
 10
282.7355173357
 20
-146.9976413895
 10
282.9261510221
 20
-145.994461022
 10
283.238383153
 20
-144.9679615814
 10
283.6641270801
 20
-143.944728864
 10
284.1923562592
 20
-142.9512640597
 10
284.8093898323
 20
-142.0132973851
 10
285.4992469538
 20
-141.1551216843
 10
286.2440606866
 20
-140.3989632573
 10
287.0245407463
 20
-139.7644062101
 10
287.8204731094
 20
-139.2678852368
 10
288.6112435456
 20
-138.92225997
 10
289.3763715162
 20
-138.7364819224
 10
290.0960406084
 20
-138.7153626479
 10
290.751611771
 20
-138.8594491247
 10
291.326106055
 20
-139.1650095886
 10
291.8046443604
 20
-139.6241301842
 10
292.1748327964
 20
-140.2249199291
 10
292.4270836769
 20
-140.9518186847
 10
292.5548638367
 20
-141.7860001548
 10
292.5548638367
 20
-142.7058594777
 10
292.4270836769
 20
-143.6875727801
 10
292.1748327964
 20
-144.705714203
 10
291.8046443604
 20
-145.7339144184
 10
291.326106055
 20
-146.7455435809
 10
290.751611771
 20
-147.7144010266
 10
290.0960406084
 20
-148.6153938564
 10
289.3763715162
 20
-149.4251868294
 10
288.6112435456
 20
-150.1228067329
 10
287.8204731094
 20
-150.6901855779
 10
287.0245407463
 20
-151.1126285504
 10
286.2440606866
 20
-151.3791945991
 10
285.4992469538
 20
-151.4829798036
 10
284.8093898323
 20
-151.4212961815
 10
284.1923562592
 20
-151.1957413062
 10
283.6641270801
 20
-150.8121569305
 10
283.238383153
 20
-150.2804776883
 10
282.9261510221
 20
-149.6144737926
 10
282.7355173357
 20
-148.8313943946
 10
282.671419406
 20
-147.9515208392
  0
LWPOLYLINE
  5
12A
330
1F
100
AcDbEntity
  8
0
  6
Continuous
 62
     7
370
    25
100
AcDbPolyline
 90
       34
 70
   128
 43
0.0
 10
284.0856329683
 20
-147.1351127274
 10
284.1495246719
 20
-146.3255720084
 10
284.3388905699
 20
-145.4715224096
 10
284.6468864855
 20
-144.6038315085
 10
285.0623806437
 20
-143.7538599151
 10
285.5703560031
 20
-142.9523278174
 10
286.1524530108
 20
-142.2282046738
 10
286.7876331641
 20
-141.6076621813
 10
287.4529393976
 20
-141.1131283625
 10
288.1243258103
 20
-140.762476958
 10
288.7775267481
 20
-140.5683814232
 10
289.3889338272
 20
-140.5378568765
 10
289.9364492028
 20
-140.6720065544
 10
290.4002842426
 20
-140.9659819382
 10
290.7636747398
 20
-141.4091579916
 10
291.013486815
 20
-141.9855171771
 10
291.1406916089
 20
-142.6742283723
 10
291.1406916089
 20
-143.45039976
 10
291.013486815
 20
-144.2859784841
 10
290.7636747398
 20
-145.1507645523
 10
290.4002842426
 20
-146.0135023431
 10
289.9364492028
 20
-146.8430102647
 10
289.3889338272
 20
-147.6093077397
 10
288.7775267481
 20
-148.2846987806
 10
288.1243258103
 20
-148.8447729957
 10
287.4529393976
 20
-149.2692878435
 10
286.7876331641
 20
-149.5429002513
 10
286.1524530108
 20
-149.6557211538
 10
285.5703560031
 20
-149.6036729097
 10
285.0623806437
 20
-149.3886366781
 10
284.6468864855
 20
-149.0183844287
 10
284.3388905699
 20
-148.5062980425
 10
284.1495246719
 20
-147.8708856556
 10
284.0856329683
 20
-147.1351127274
  0
LWPOLYLINE
  5
12B
330
1F
100
AcDbEntity
  8
0
  6
Continuous
 62
     7
370
    25
100
AcDbPolyline
 90
       92
 70
   128
 43
0.0
 10
349.7579454918
 20
-12.4599563234
 10
348.5275431435
 20
-11.7494174047
 10
347.4293674412
 20
-11.1152124609
 10
346.4686516922
 20
-10.5603637673
 10
345.6499741447
 20
-10.0875154306
 10
344.9772361699
 20
-9.6989207885
 10
344.4536436706
 20
-9.3964316714
 10
344.0816918036
 20
-9.1814895777
 10
343.8631530889
 20
-9.0551188043
 10
343.799068963
 20
-9.0179215656
 10
343.889744816
 20
-9.0700751232
 10
344.134748536
 20
-9.2113309419
 10
344.5329125688
 20
-9.4410158732
 10
345.0823394815
 20
-9.7580353639
 10
345.7804110045
 20
-10.1608786717
 10
346.6238005093
 20
-10.6476260649
 10
347.6084888607
 20
-11.2159579703
 10
348.7297835704
 20
-11.8631660278
 10
349.9823411583
 20
-12.586165996
 10
351.3601926172
 20
-13.381512451
 10
352.8567718574
 20
-14.2454152047
 10
354.4649469973
 20
-15.1737573671
 10
356.17705435
 20
-16.1621149649
 10
357.9849349442
 20
-17.2057780241
 10
359.8799734057
 20
-18.299773015
 10
361.8531390131
 20
-19.4388865533
 10
363.8950287337
 20
-20.6176902441
 10
365.9959120333
 20
-21.8305665511
 10
368.145777246
 20
-23.0717355663
 10
370.3343792852
 20
-24.3352825541
 10
372.5512884655
 20
-25.6151861378
 10
374.7859402049
 20
-26.9053469938
 10
377.0276853703
 20
-28.1996169182
 10
379.2658410252
 20
-29.4918281254
 10
381.4897413386
 20
-30.7758226405
 10
383.6887884126
 20
-32.0454816448
 10
385.8525027867
 20
-33.2947546352
 10
387.9705733763
 20
-34.5176882568
 10
390.0329066107
 20
-35.7084546739
 10
392.0296745328
 20
-36.8613793425
 10
393.951361634
 20
-37.9709680513
 10
395.7888102003
 20
-39.0319331049
 10
397.5332639524
 20
-40.0392185216
 10
399.1764097738
 20
-40.9880241277
 10
400.7104173263
 20
-41.8738284325
 10
402.1279763655
 20
-42.6924101749
 10
403.4223315768
 20
-43.4398684402
 10
404.5873147684
 20
-44.1126412495
 10
405.6173742647
 20
-44.7075225338
 10
406.5076013632
 20
-45.221677413
 10
407.2537537263
 20
-45.6526557049
 10
407.8522755982
 20
-45.9984036017
 10
408.3003147497
 20
-46.2572734572
 10
408.5957360701
 20
-46.4280316386
 10
408.7371317424
 20
-46.5098644055
 10
408.7238279517
 20
-46.5023817874
 10
408.5558880967
 20
-46.4056194425
 10
408.2341124872
 20
-46.2200384873
 10
407.7600345306
 20
-45.9465232997
 10
407.1359134243
 20
-45.586377304
 10
406.3647233895
 20
-45.14131676
 10
405.4501394979
 20
-44.6134625838
 10
404.3965201584
 20
-44.005330241
 10
403.2088863468
 20
-43.3198177591
 10
401.8928976791
 20
-42.5601919172
 10
400.4548254406
 20
-41.7300726784
 10
398.9015227004
 20
-40.833415939
 10
397.2403916535
 20
-39.8744946767
 10
395.4793483457
 20
-38.8578785878
 10
393.6267849505
 20
-37.7884123112
 10
391.691529776
 20
-36.6711923405
 10
389.6828051944
 20
-35.5115427378
 10
387.6101836932
 20
-34.3149897615
 10
385.4835422577
 20
-33.0872355315
 10
383.3130153027
 20
-31.8341308557
 10
381.1089463777
 20
-30.5616473486
 10
378.8818388748
 20
-29.2758489737
 10
376.6423059755
 20
-27.9828631456
 10
374.401020074
 20
-26.6888515308
 10
372.1686619182
 20
-25.3999806838
 10
369.9558697113
 20
-24.1223926612
 10
367.773188416
 20
-22.8621757516
 10
365.6310195026
 20
-21.6253354627
 10
363.5395713814
 20
-20.4177659016
 10
361.5088107553
 20
-19.2452216872
 10
359.5484151234
 20
-18.1132905266
 10
357.6677266636
 20
-17.0273665874
 10
355.875707713
 20
-15.9926247916
 10
354.1808980579
 20
-15.013996155
 10
352.5913742382
 20
-14.0961442889
 10
351.1147110586
 20
-13.2434431753
 10
349.7579454918
 20
-12.4599563234
  0
LWPOLYLINE
  5
12C
330
1F
100
AcDbEntity
  8
0
  6
Continuous
 62
     7
370
    25
100
AcDbPolyline
 90
       40
 70
   128
 43
0.0
 10
322.4840818844
 20
-13.9766393573
 10
322.5481798141
 20
-13.0227599076
 10
322.7388135006
 20
-12.0195795401
 10
323.0510456314
 20
-10.9930800996
 10
323.4767895585
 20
-9.9698473822
 10
324.0050187377
 20
-8.9763825779
 10
324.6220523108
 20
-8.0384159032
 10
325.3119094322
 20
-7.1802402025
 10
326.0567231651
 20
-6.4240817754
 10
326.8372032248
 20
-5.7895247282
 10
327.6331355878
 20
-5.2930037549
 10
328.4239060241
 20
-4.9473784881
 10
329.1890339946
 20
-4.7616004405
 10
329.9087030869
 20
-4.740481166
 10
330.5642742494
 20
-4.8845676428
 10
331.1387685335
 20
-5.1901281067
 10
331.6173068389
 20
-5.6492487023
 10
331.9874952749
 20
-6.2500384472
 10
332.2397461554
 20
-6.9769372028
 10
332.3675263152
 20
-7.8111186729
 10
332.3675263152
 20
-8.7309779958
 10
332.2397461554
 20
-9.7126912982
 10
331.9874952749
 20
-10.7308327211
 10
331.6173068389
 20
-11.7590329366
 10
331.1387685335
 20
-12.7706620991
 10
330.5642742494
 20
-13.7395195447
 10
329.9087030869
 20
-14.6405123745
 10
329.1890339946
 20
-15.4503053475
 10
328.4239060241
 20
-16.147925251
 10
327.6331355878
 20
-16.715304096
 10
326.8372032248
 20
-17.1377470685
 10
326.0567231651
 20
-17.4043131172
 10
325.3119094322
 20
-17.5080983217
 10
324.6220523108
 20
-17.4464146996
 10
324.0050187377
 20
-17.2208598243
 10
323.4767895585
 20
-16.8372754486
 10
323.0510456314
 20
-16.3055962064
 10
322.7388135006
 20
-15.6395923107
 10
322.5481798141
 20
-14.8565129127
 10
322.4840818844
 20
-13.9766393573
  0
LWPOLYLINE
  5
12D
330
1F
100
AcDbEntity
  8
0
  6
Continuous
 62
     7
370
    25
100
AcDbPolyline
 90
       34
 70
   128
 43
0.0
 10
323.8982954468
 20
-13.1602312455
 10
323.9621871503
 20
-12.3506905265
 10
324.1515530484
 20
-11.4966409277
 10
324.4595489639
 20
-10.6289500266
 10
324.8750431221
 20
-9.7789784332
 10
325.3830184816
 20
-8.9774463355
 10
325.9651154892
 20
-8.2533231919
 10
326.6002956426
 20
-7.6327806994
 10
327.265601876
 20
-7.1382468806
 10
327.9369882888
 20
-6.7875954761
 10
328.5901892266
 20
-6.5934999413
 10
329.2015963057
 20
-6.5629753946
 10
329.7491116813
 20
-6.6971250726
 10
330.212946721
 20
-6.9911004564
 10
330.5763372182
 20
-7.4342765097
 10
330.8261492934
 20
-8.0106356952
 10
330.9533540874
 20
-8.6993468904
 10
330.9533540874
 20
-9.4755182781
 10
330.8261492934
 20
-10.3110970022
 10
330.5763372182
 20
-11.1758830705
 10
330.212946721
 20
-12.0386208612
 10
329.7491116813
 20
-12.8681287828
 10
329.2015963057
 20
-13.6344262578
 10
328.5901892266
 20
-14.3098172988
 10
327.9369882888
 20
-14.8698915138
 10
327.265601876
 20
-15.2944063616
 10
326.6002956426
 20
-15.5680187694
 10
325.9651154892
 20
-15.6808396719
 10
325.3830184816
 20
-15.6287914278
 10
324.8750431221
 20
-15.4137551962
 10
324.4595489639
 20
-15.0435029468
 10
324.1515530484
 20
-14.5314165606
 10
323.9621871503
 20
-13.8960041738
 10
323.8982954468
 20
-13.1602312455
  0
LWPOLYLINE
  5
12E
330
1F
100
AcDbEntity
  8
0
  6
Continuous
 62
     1
370
    25
100
AcDbPolyline
 90
       40
 70
   128
 43
0.0
 10
298.2277685921
 20
-102.4344951682
 10
300.3367189069
 20
-101.2898015828
 10
302.5637372674
 20
-100.2222277292
 10
304.90037583
 20
-99.2358232804
 10
307.3377709243
 20
-98.3343300066
 10
309.8666766758
 20
-97.5211675805
 10
312.4775000789
 20
-96.7994206057
 10
315.160337386
 20
-96.1718269156
 10
317.9050116763
 20
-95.6407671882
 10
320.7011114602
 20
-95.2082559149
 10
323.5380301733
 20
-94.875933759
 10
326.4050064114
 20
-94.6450613324
 10
329.2911647515
 20
-94.5165144132
 10
332.1855570064
 20
-94.4907806239
 10
335.077203755
 20
-94.5679575816
 10
337.9551359906
 20
-94.7477525278
 10
340.8084367305
 20
-95.0294834384
 10
343.6262824276
 20
-95.4120816118
 10
346.3979840282
 20
-95.894095722
 10
349.1130275185
 20
-96.4736973243
 10
351.7611138087
 20
-97.1486877914
 10
354.3321978005
 20
-97.9165066533
 10
356.8165264915
 20
-98.7742413099
 10
359.2046759722
 20
-99.7186380799
 10
361.4875871735
 20
-100.7461145429
 10
363.6566002313
 20
-101.8527731288
 10
365.7034873361
 20
-103.0344159024
 10
367.620483944
 20
-104.2865604881
 10
369.4003182303
 20
-105.6044570724
 10
371.0362386739
 20
-106.9831064222
 10
372.5220396682
 20
-108.4172788483
 10
373.8520850611
 20
-109.9015340435
 10
375.0213295348
 20
-111.4302417193
 10
376.0253377446
 20
-112.9976029641
 10
376.8603011434
 20
-114.5976722396
 10
377.5230524291
 20
-116.2243799352
 10
378.011077559
 20
-117.8715553912
 10
378.3225252866
 20
-119.532950307
 10
378.456214184
 20
-121.2022624427
 10
378.4617873078
 20
-121.620085796
  0
LWPOLYLINE
  5
12F
330
1F
100
AcDbEntity
  8
0
  6
Continuous
 62
     1
370
    25
100
AcDbPolyline
 90
       14
 70
   128
 43
0.0
 10
284.4617873078
 20
-121.620085796
 10
284.5119374921
 20
-120.3670120667
 10
284.7346114145
 20
-118.7008683218
 10
285.1345375203
 20
-117.0457981687
 10
285.7101987529
 20
-115.4080798555
 10
286.4594114319
 20
-113.7939258085
 10
287.3793335371
 20
-112.209459067
 10
288.4664754889
 20
-110.660690056
 10
289.7167133854
 20
-109.153493787
 10
291.125304646
 20
-107.6935875717
 10
292.6869060017
 20
-106.2865093342
 10
294.3955937636
 20
-104.9375966045
 10
296.2448862937
 20
-103.6519662704
 10
298.2277685921
 20
-102.4344951682
  0
LWPOLYLINE
  5
130
330
1F
100
AcDbEntity
  8
0
  6
Continuous
 62
     1
370
    25
100
AcDbPolyline
 90
       43
 70
   128
 43
0.0
 10
308.168894089
 20
-68.9812914049
 10
309.6786093914
 20
-69.853102991
 10
311.3086658431
 20
-70.7943850139
 10
313.0528800815
 20
-71.8015668685
 10
314.9046357046
 20
-72.8708279691
 10
316.8569083692
 20
-73.998112242
 10
318.9022924362
 20
-75.1791435119
 10
321.0330290633
 20
-76.4094417227
 10
323.2410356367
 20
-77.6843399318
 10
325.5179364311
 20
-78.9990020136
 10
327.8550943819
 20
-80.3484410046
 10
330.2436438484
 20
-81.7275380204
 10
332.6745242444
 20
-83.1310616737
 10
335.138514408
 20
-84.5536879185
 10
337.6262675804
 20
-85.9900202462
 10
340.1283468617
 20
-87.4346101563
 10
342.6352610082
 20
-88.8819778245
 10
345.1375004358
 20
-90.3266328893
 10
347.6255732934
 20
-91.7630952794
 10
350.0900414683
 20
-93.1859160009
 10
352.5215563887
 20
-94.5896978073
 10
354.9108944855
 20
-95.9691156736
 10
357.2489921809
 20
-97.3189369952
 10
359.5269802696
 20
-98.6340414375
 10
361.7362175624
 20
-99.9094403589
 10
363.8683236656
 20
-101.1402957344
 10
365.9152107705
 20
-102.321938508
 10
367.869114333
 20
-103.449886304
 10
369.7226225278
 20
-104.5198604299
 10
371.4687043633
 20
-105.5278021075
 10
373.1007363532
 20
-106.4698878686
 10
374.612527641
 20
-107.3425440594
 10
375.9983434846
 20
-108.1424603959
 10
377.2529270098
 20
-108.8666025215
 10
378.3715191516
 20
-109.5122235172
 10
379.3498767068
 20
-110.0768743212
 10
380.1842884301
 20
-110.5584130198
 10
380.871589112
 20
-110.9550129716
 10
381.4091715856
 20
-111.2651697373
 10
381.7949966165
 20
-111.4877067859
 10
382.0276006382
 20
-111.6217799583
 10
382.1061013039
 20
-111.6668806689
 10
382.1061067528
 20
-111.6668820845
  0
LWPOLYLINE
  5
131
330
1F
100
AcDbEntity
  8
0
  6
Continuous
 62
     1
370
    25
100
AcDbPolyline
 90
       11
 70
   128
 43
0.0
 10
300.6997188568
 20
-64.666881981
 10
300.7756247759
 20
-64.7109262301
 10
301.0056384654
 20
-64.8439455383
 10
301.3888928537
 20
-65.0654367333
 10
301.9239341254
 20
-65.3745596232
 10
302.6087326859
 20
-65.770141599
 10
303.4406908596
 20
-66.2506820827
 10
304.4166527441
 20
-66.8143582196
 10
305.5329161818
 20
-67.4590317932
 10
306.7852468031
 20
-68.1822573357
 10
308.168894089
 20
-68.9812914049
  0
ENDSEC
  0
SECTION
  2
OBJECTS
  0
DICTIONARY
  5
C
330
0
100
AcDbDictionary
281
     1
  3
ACAD_GROUP
350
D
  3
ACAD_LAYOUT
350
1A
  3
ACAD_MLINESTYLE
350
17
  3
ACAD_PLOTSETTINGS
350
19
  3
ACAD_PLOTSTYLENAME
350
E
  3
ACAD_SCALELIST
350
47
  3
DWGPROPS
350
132
  0
DICTIONARY
  5
D
102
{ACAD_REACTORS
330
C
102
}
330
C
100
AcDbDictionary
281
     1
  0
DICTIONARY
  5
1A
102
{ACAD_REACTORS
330
C
102
}
330
C
100
AcDbDictionary
281
     1
  3
Layout1
350
1E
  3
Layout2
350
26
  3
Model
350
22
  0
DICTIONARY
  5
17
102
{ACAD_REACTORS
330
C
102
}
330
C
100
AcDbDictionary
281
     1
  3
Standard
350
18
  0
DICTIONARY
  5
19
102
{ACAD_REACTORS
330
C
102
}
330
C
100
AcDbDictionary
281
     1
  0
ACDBDICTIONARYWDFLT
  5
E
102
{ACAD_REACTORS
330
C
102
}
330
C
100
AcDbDictionary
281
     1
  3
Normal
350
F
100
AcDbDictionaryWithDefault
340
F
  0
DICTIONARY
  5
47
102
{ACAD_REACTORS
330
C
102
}
330
C
100
AcDbDictionary
281
     1
  3
A0
350
48
  3
A1
350
49
  3
A2
350
4A
  3
A3
350
4B
  3
A4
350
4C
  3
A5
350
4D
  3
A6
350
4E
  3
A7
350
4F
  3
A8
350
50
  3
A9
350
51
  3
B0
350
52
  3
B1
350
53
  3
B2
350
54
  3
B3
350
55
  3
B4
350
56
  3
B5
350
57
  3
B6
350
58
  3
B7
350
59
  3
B8
350
5A
  3
B9
350
5B
  3
C0
350
5C
  3
C1
350
5D
  3
C2
350
5E
  3
C3
350
5F
  3
C4
350
60
  3
C5
350
61
  3
C6
350
62
  3
C7
350
63
  3
C8
350
64
  3
C9
350
65
  3
D0
350
66
  3
D1
350
67
  3
D2
350
68
  0
XRECORD
  5
132
102
{ACAD_REACTORS
330
C
102
}
330
C
100
AcDbXrecord
280
     1
  1
DWGPROPS COOKIE
  2

  3

  4

  6

  7

  8
b.kav
  9

300
=
301
=
302
=
303
=
304
=
305
=
306
=
307
=
308
=
309
=
 40
0.0
 41
2459741.478180289
 42
2459741.478180463
  1

 90
        0
  0
LAYOUT
  5
1E
102
{ACAD_REACTORS
330
1A
102
}
330
1A
100
AcDbPlotSettings
  1

  2
none_device
  4

  6

 40
0.0
 41
0.0
 42
0.0
 43
0.0
 44
0.0
 45
0.0
 46
0.0
 47
0.0
 48
0.0
 49
0.0
140
0.0
141
0.0
142
1.0
143
1.0
 70
   688
 72
     1
 73
     0
 74
     5
  7

 75
    16
147
1.0
148
0.0
149
0.0
100
AcDbLayout
  1
Layout1
 70
     1
 71
     1
 10
0.0
 20
0.0
 11
420.0
 21
297.0
 12
0.0
 22
0.0
 32
0.0
 14
1.0000000000E+20
 24
1.0000000000E+20
 34
1.0000000000E+20
 15
-1.0000000000E+20
 25
-1.0000000000E+20
 35
-1.0000000000E+20
146
0.0
 13
0.0
 23
0.0
 33
0.0
 16
1.0
 26
0.0
 36
0.0
 17
0.0
 27
1.0
 37
0.0
 76
     0
330
1B
  0
LAYOUT
  5
26
102
{ACAD_REACTORS
330
1A
102
}
330
1A
100
AcDbPlotSettings
  1

  2
none_device
  4

  6

 40
0.0
 41
0.0
 42
0.0
 43
0.0
 44
0.0
 45
0.0
 46
0.0
 47
0.0
 48
0.0
 49
0.0
140
0.0
141
0.0
142
1.0
143
1.0
 70
   688
 72
     1
 73
     0
 74
     5
  7

 75
    16
147
1.0
148
0.0
149
0.0
100
AcDbLayout
  1
Layout2
 70
     1
 71
     2
 10
0.0
 20
0.0
 11
0.0
 21
0.0
 12
0.0
 22
0.0
 32
0.0
 14
0.0
 24
0.0
 34
0.0
 15
0.0
 25
0.0
 35
0.0
146
0.0
 13
0.0
 23
0.0
 33
0.0
 16
1.0
 26
0.0
 36
0.0
 17
0.0
 27
1.0
 37
0.0
 76
     0
330
23
  0
LAYOUT
  5
22
102
{ACAD_REACTORS
330
1A
102
}
330
1A
100
AcDbPlotSettings
  1

  2
none_device
  4
Letter_(8.50_x_11.00_Inches)
  6

 40
6.35
 41
6.35
 42
6.35000508
 43
6.35000508
 44
215.9
 45
279.4
 46
0.0
 47
0.0
 48
0.0
 49
0.0
140
0.0
141
0.0
142
1.0
143
1.0
 70
  1712
 72
     1
 73
     0
 74
     0
  7

 75
     0
147
1.0
148
0.0
149
0.0
100
AcDbLayout
  1
Model
 70
     1
 71
     0
 10
0.0
 20
0.0
 11
279.4
 21
215.9
 12
0.0
 22
0.0
 32
0.0
 14
0.0
 24
0.0
 34
0.0
 15
279.4
 25
215.9
 35
0.0
146
0.0
 13
0.0
 23
0.0
 33
0.0
 16
1.0
 26
0.0
 36
0.0
 17
0.0
 27
1.0
 37
0.0
 76
     0
330
1F
331
29
  0
MLINESTYLE
  5
18
102
{ACAD_REACTORS
330
17
102
}
330
17
100
AcDbMlineStyle
  2
Standard
 70
     0
  3

 62
   256
 51
90.0
 52
90.0
 71
     2
 49
0.5
 62
   256
  6
BYLAYER
 49
-0.5
 62
   256
  6
BYLAYER
  0
ACDBPLACEHOLDER
  5
F
102
{ACAD_REACTORS
330
E
102
}
330
E
  0
SCALE
  5
48
102
{ACAD_REACTORS
330
47
102
}
330
47
100
AcDbScale
 70
     0
300
1:1
140
1.0
141
1.0
290
     1
  0
SCALE
  5
49
102
{ACAD_REACTORS
330
47
102
}
330
47
100
AcDbScale
 70
     0
300
1:2
140
1.0
141
2.0
290
     0
  0
SCALE
  5
4A
102
{ACAD_REACTORS
330
47
102
}
330
47
100
AcDbScale
 70
     0
300
1:4
140
1.0
141
4.0
290
     0
  0
SCALE
  5
4B
102
{ACAD_REACTORS
330
47
102
}
330
47
100
AcDbScale
 70
     0
300
1:5
140
1.0
141
5.0
290
     0
  0
SCALE
  5
4C
102
{ACAD_REACTORS
330
47
102
}
330
47
100
AcDbScale
 70
     0
300
1:8
140
1.0
141
8.0
290
     0
  0
SCALE
  5
4D
102
{ACAD_REACTORS
330
47
102
}
330
47
100
AcDbScale
 70
     0
300
1:10
140
1.0
141
10.0
290
     0
  0
SCALE
  5
4E
102
{ACAD_REACTORS
330
47
102
}
330
47
100
AcDbScale
 70
     0
300
1:16
140
1.0
141
16.0
290
     0
  0
SCALE
  5
4F
102
{ACAD_REACTORS
330
47
102
}
330
47
100
AcDbScale
 70
     0
300
1:20
140
1.0
141
20.0
290
     0
  0
SCALE
  5
50
102
{ACAD_REACTORS
330
47
102
}
330
47
100
AcDbScale
 70
     0
300
1:30
140
1.0
141
30.0
290
     0
  0
SCALE
  5
51
102
{ACAD_REACTORS
330
47
102
}
330
47
100
AcDbScale
 70
     0
300
1:40
140
1.0
141
40.0
290
     0
  0
SCALE
  5
52
102
{ACAD_REACTORS
330
47
102
}
330
47
100
AcDbScale
 70
     0
300
1:50
140
1.0
141
50.0
290
     0
  0
SCALE
  5
53
102
{ACAD_REACTORS
330
47
102
}
330
47
100
AcDbScale
 70
     0
300
1:100
140
1.0
141
100.0
290
     0
  0
SCALE
  5
54
102
{ACAD_REACTORS
330
47
102
}
330
47
100
AcDbScale
 70
     0
300
2:1
140
2.0
141
1.0
290
     0
  0
SCALE
  5
55
102
{ACAD_REACTORS
330
47
102
}
330
47
100
AcDbScale
 70
     0
300
4:1
140
4.0
141
1.0
290
     0
  0
SCALE
  5
56
102
{ACAD_REACTORS
330
47
102
}
330
47
100
AcDbScale
 70
     0
300
8:1
140
8.0
141
1.0
290
     0
  0
SCALE
  5
57
102
{ACAD_REACTORS
330
47
102
}
330
47
100
AcDbScale
 70
     0
300
10:1
140
10.0
141
1.0
290
     0
  0
SCALE
  5
58
102
{ACAD_REACTORS
330
47
102
}
330
47
100
AcDbScale
 70
     0
300
100:1
140
100.0
141
1.0
290
     0
  0
SCALE
  5
59
102
{ACAD_REACTORS
330
47
102
}
330
47
100
AcDbScale
 70
     0
300
1/128" = 1'-0"
140
0.0078125
141
12.0
290
     0
  0
SCALE
  5
5A
102
{ACAD_REACTORS
330
47
102
}
330
47
100
AcDbScale
 70
     0
300
1/64" = 1'-0"
140
0.015625
141
12.0
290
     0
  0
SCALE
  5
5B
102
{ACAD_REACTORS
330
47
102
}
330
47
100
AcDbScale
 70
     0
300
1/32" = 1'-0"
140
0.03125
141
12.0
290
     0
  0
SCALE
  5
5C
102
{ACAD_REACTORS
330
47
102
}
330
47
100
AcDbScale
 70
     0
300
1/16" = 1'-0"
140
0.0625
141
12.0
290
     0
  0
SCALE
  5
5D
102
{ACAD_REACTORS
330
47
102
}
330
47
100
AcDbScale
 70
     0
300
3/32" = 1'-0"
140
0.09375
141
12.0
290
     0
  0
SCALE
  5
5E
102
{ACAD_REACTORS
330
47
102
}
330
47
100
AcDbScale
 70
     0
300
1/8" = 1'-0"
140
0.125
141
12.0
290
     0
  0
SCALE
  5
5F
102
{ACAD_REACTORS
330
47
102
}
330
47
100
AcDbScale
 70
     0
300
3/16" = 1'-0"
140
0.1875
141
12.0
290
     0
  0
SCALE
  5
60
102
{ACAD_REACTORS
330
47
102
}
330
47
100
AcDbScale
 70
     0
300
1/4" = 1'-0"
140
0.25
141
12.0
290
     0
  0
SCALE
  5
61
102
{ACAD_REACTORS
330
47
102
}
330
47
100
AcDbScale
 70
     0
300
3/8" = 1'-0"
140
0.375
141
12.0
290
     0
  0
SCALE
  5
62
102
{ACAD_REACTORS
330
47
102
}
330
47
100
AcDbScale
 70
     0
300
1/2" = 1'-0"
140
0.5
141
12.0
290
     0
  0
SCALE
  5
63
102
{ACAD_REACTORS
330
47
102
}
330
47
100
AcDbScale
 70
     0
300
3/4" = 1'-0"
140
0.75
141
12.0
290
     0
  0
SCALE
  5
64
102
{ACAD_REACTORS
330
47
102
}
330
47
100
AcDbScale
 70
     0
300
1" = 1'-0"
140
1.0
141
12.0
290
     0
  0
SCALE
  5
65
102
{ACAD_REACTORS
330
47
102
}
330
47
100
AcDbScale
 70
     0
300
1-1/2" = 1'-0"
140
1.5
141
12.0
290
     0
  0
SCALE
  5
66
102
{ACAD_REACTORS
330
47
102
}
330
47
100
AcDbScale
 70
     0
300
3" = 1'-0"
140
3.0
141
12.0
290
     0
  0
SCALE
  5
67
102
{ACAD_REACTORS
330
47
102
}
330
47
100
AcDbScale
 70
     0
300
6" = 1'-0"
140
6.0
141
12.0
290
     0
  0
SCALE
  5
68
102
{ACAD_REACTORS
330
47
102
}
330
47
100
AcDbScale
 70
     0
300
1'-0" = 1'-0"
140
12.0
141
12.0
290
     0
  0
ENDSEC
  0
EOF
